» » »

Mike Oldfield - Outcast Tabs

Artists:  A B C D E F G H I J K L M N O P Q R S T U V W X Y Z # 

Outcast Tabs

(ver. 3) Click to play this song!
Mike Oldfield
 Rating:
4/5 (4 votes)

 Outcast lessons Tabs too difficult? Try these video lessons and learn fast
 
                Title : Outcast
Album : Tubular Bells II

d = strum down
u = strum Up

E|------------------|----------------|------------------|-----------------|
A|--x-------x-------|----------------|--x-------x-------|-----------------|
D|--x--5-5--x-------|--7-7-7-7-5--5--|--x--5-5--x-------|-----------------| {Play 2X}
G|--x--5-5--x--7-7--|--7-7-7-7-5--5--|--x--5-5--x--7-7--|--5-5-5-5-7---7--|
B|--x--3-3--x--7-7--|--5-5-5-5-3--3--|--x--3-3--x--7-7--|--5-5-5-5-7---7--|
E|--x--3-3--x--5-5--|--5-5-5-5-3--3--|--x--3-3--x--5-5--|--3-3-3-3-5---5--|
    u  u u  u  u u     u d u d u  u     u  u u  u  u u     u d u d u   u

E|----------------------|-----------------|------------------|-----------------|
A|----------------------|-----------------|------------------|-----------------|
D|--------5-5-----------|-7-7-7-x-5-x-5-x-|---5-5------------|-----------------| {Play 2X}
G|--x-x-x-5-5-x-x-7-7-x-|-7-7-7-x-5-x-5-x-|-x-5-5-x-x-7-7-x--|-5-5-7-7-7-x-x-x-|
B|--x-x-x-3-3-x-x-7-5-x-|-5-5-5-x-3-x-3-x-|-x-3-3-x-x-7-7-x--|-5-5-7-7-7-x-x-x-|
E|--x-x-x-----x-x-5-5-x-|-----------------|-x-----x-x-5-5-x--|-3-3-5-5-5-x-x-x-|
    u u u d u d u d u d   u d u d u d u d   u d u d u d u d    u d u d u d u d

E|----------------------|-----------------|------------------|-----------------|
A|----------------------|-----------------|------------------|-----------------|
D|----------------------|-2-------2---2-x-|------------------|-------2---2-----| {Play 4X}
G|--2--x--x--2--x--x----|-2-x-x-x-2-x-2-x-|-2-x-x-x-2-x-x-x--|-2-x-x-2-x-2-x-x-|
B|--2--x--x--2--x--x----|-0-x-x-x-0-x-2-x-|-2-x-x-x-2-x-x-x--|-2-x-x-0-x-0-x-x-|
E|--0--x--x--0--x--x----|---x-x-x---x---x-|-0-x-x-x-0-x-x-x--|-0-x-x---x---x-x-|
    u  u  u  u  u  u      u u u u u u u u   u u u u u u u u    u u u u u u u u
            
Submit corrections


        Outcast lessons Hard to play? Try these video lessons and learn fast Outcast lessons
        
↑ Back to top | Tablatures and chords for acoustic guitar and electric guitar, ukulele, drums are parodies/interpretations of the original songs. You may use it for private study, scholarship, research or language learning purposes only