» » »

Mike Krol - Neighborhood Watch Bass

Artists:  A B C D E F G H I J K L M N O P Q R S T U V W X Y Z # 

Neighborhood Watch Bass

(ver. 1) Click to play this song!
Mike Krol
 Rating:
4.3/5 (15 votes)

 Neighborhood Watch lessons Tabs too difficult? Try these video lessons and learn fast
 
                G|---------------------------------------------------------------------------|
D|---------------------------------------------------------------------------|
A|-2-2-2-2-2-2-2-2-2-2-2-2-2-2-2-2--6-6-6-6-6-6-6-6--7-7-7-7-7-7-7-7---------| 
E|---------------------------------------------------------------------------| x3

G|---------------------------------------------------------------------------|
D|---------------------------------------------------------------------------|
A|-2-2-2-2-----------6-6-6-6/7-7-7-7-----------------------------------------|
E|----------4-4-4-4----------------------------------------------------------| x2

G|---------------------------------------------------------------------------|
D|---------------------------------------------------------------------------|
A|-2-2-2-2-2-2-2-2-2-2-2-2-2-2-2-2--6-6-6-6-6-6-6-6--7-7-7-7-7-7-7-7---------| 
E|---------------------------------------------------------------------------| x4

G|---------------------------------------------------------------------------|
D|---------------------------------------------------------------------------|
A|-2-2-2-2-----------6-6-6-6/7-7-7-7-----------------------------------------|
E|----------4-4-4-4----------------------------------------------------------| x2

G|---------------------------------------------------------------------------|
D|---------------------------------------------------------------------------|
A|-2-2-2-2-2-2-2-2-2-2-2-2-2-2-2-2--6-6-6-6-6-6-6-6--7-7-7-7-7-7-7-7---------| 
E|---------------------------------------------------------------------------| x4

G|---------------------------------------------------------------------------|
D|---------------------------------------------------------------------------|
A|-2-2-2-2-----------6-6-6-6/7-7-7-7-----------------------------------------|
E|----------4-4-4-4----------------------------------------------------------| x2

G|---------------------------------------------------------------------------|
D|---------------------------------------------------------------------------|
A|-4-4-4-4-4-4-4-4--7-7-7-7-7-7-7-7------------------------------------------|
E|---------------------------------------------------------------------------| x2

G|---------------------------------------------------------------------------|
D|---------------------------------------------------------------------------|
A|-2-2-2---------------------------------------------------------------------|
E|--------4-4-4--2-2-2--0-0-0------------------------------------------------| x5

            
Submit corrections


        Neighborhood Watch lessons Hard to play? Try these video lessons and learn fast Neighborhood Watch lessons
        
↑ Back to top | Tablatures and chords for acoustic guitar and electric guitar, ukulele, drums are parodies/interpretations of the original songs. You may use it for private study, scholarship, research or language learning purposes only