Home » M » Mike And The Mechanics »

Mike And The Mechanics - High Life Tabs

Artists:  A B C D E F G H I J K L M N O P Q R S T U V W X Y Z # 

High Life Tabs

(ver. 1) Click to play this song!
Mike And The Mechanics
[Intro]

e|----------------------------------------------|
B|--11-11-11-10-6-6-8-8---11-11-11-10-6-10-8-8--|
G|----------------------------------------------|
D|--12-12-12-10-7-7-8-8---12-12-12-10-7-7--8-8--|
A|----------------------------------------------|
E|----------------------------------------------|


[Verse]

e|----------------------------------------------|
B|--11-11-11-10-6-6-8-8---11-11-11-10-6-10-8-8--|
G|----------------------------------------------|
D|--12-12-12-10-7-7-8-8---12-12-12-10-7-7--8-8--|
A|----------------------------------------------|
E|----------------------------------------------|

e|-----------------------------------------------|
B|--11-11-11-10-6-6-8-8---11-11-11-10-6-8-10-10--|
G|-----------------------------------------------|
D|--12-12-12-10-7-7-8-8---12-12-12-10-7-8-10-10--|
A|-----------------------------------------------|
E|-----------------------------------------------|

e|----------------------------------------------|
B|--11-11-11-10-6-6-8-8---11-11-11-10-6-10-8-8--|
G|----------------------------------------------|
D|--12-12-12-10-7-7-8-8---12-12-12-10-7-7--8-8--|
A|----------------------------------------------|
E|----------------------------------------------|

e|-----------------------------------------------|
B|--11-11-11-10-6-6-8-8---11-11-11-10-6-8-10-10--|
G|-----------------------------------------------|
D|--12-12-12-10-7-7-8-8---12-12-12-10-7-8-10-10--|
A|-----------------------------------------------|
E|-----------------------------------------------|


[Pre-Chorus]

e|-----------------------------------------|
B|-----------------------------------------|
G|--8--8--8--3-3-3-5-5----5-5-5-3-7---7-7--|
D|-----------------------------------------|
A|--10-10-10-5-5-5-6-6----6-6-6-5-8---8-8--|
E|-----------------------------------------|

e|-----------------------------------------|
B|-----------------------------------------|
G|--8--8--8--3-3-3-5-5----5-5-5-3-7---7-7--|
D|-----------------------------------------|
A|--10-10-10-5-5-5-6-6----6-6-6-5-8---8-8--|
E|-----------------------------------------|


[Chorus]

e|---------------------------------------|
B|---------------------------------------|
G|--8-8---7--7--5--5-5---8-8--5--7--7-7--|
D|--8-8---8--8--6--6-6---8-8--6--8--8-8--|
A|---------------------------------------|
E|---------------------------------------|

e|--------------------------------------------------------|
B|--------------------------------------------------------|
G|--8-8---7--7--5--5-5----8--5--7---7-7----8--5--7---7-7--|
D|--8-8---8--8--6--6-6----8--6--8---8-8----8--6--8---8-8--|
A|--------------------------------------------------------|
E|--------------------------------------------------------|


[Post-Chorus]

e|----------------------------------------------|
B|--11-11-11-10-6-6-8-8---11-11-11-10-6-10-8-8--|
G|----------------------------------------------|
D|--12-12-12-10-7-7-8-8---12-12-12-10-7-7--8-8--|
A|----------------------------------------------|
E|----------------------------------------------|


[Verse]

e|----------------------------------------------|
B|--11-11-11-10-6-6-8-8---11-11-11-10-6-10-8-8--|
G|----------------------------------------------|
D|--12-12-12-10-7-7-8-8---12-12-12-10-7-7--8-8--|
A|----------------------------------------------|
E|----------------------------------------------|

e|-----------------------------------------------|
B|--11-11-11-10-6-6-8-8---11-11-11-10-6-8-10-10--|
G|-----------------------------------------------|
D|--12-12-12-10-7-7-8-8---12-12-12-10-7-8-10-10--|
A|-----------------------------------------------|
E|-----------------------------------------------|


[Pre-Chorus]

e|-----------------------------------------|
B|-----------------------------------------|
G|--8--8--8--3-3-3-5-5----5-5-5-3-7---7-7--|
D|-----------------------------------------|
A|--10-10-10-5-5-5-6-6----6-6-6-5-8---8-8--|
E|-----------------------------------------|

e|-----------------------------------------|
B|-----------------------------------------|
G|--8--8--8--3-3-3-5-5----5-5-5-3-7---7-7--|
D|-----------------------------------------|
A|--10-10-10-5-5-5-6-6----6-6-6-5-8---8-8--|
E|-----------------------------------------|


[Chorus]

e|---------------------------------------|
B|---------------------------------------|
G|--8-8---7--7--5--5-5---8-8--5--7--7-7--|
D|--8-8---8--8--6--6-6---8-8--6--8--8-8--|
A|---------------------------------------|
E|---------------------------------------|

e|---------------------------------------|
B|---------------------------------------|
G|--8-8---7--7--5--5-5----8--5--7---7-7--|
D|--8-8---8--8--6--6-6----8--6--8---8-8--|
A|---------------------------------------|
E|---------------------------------------|


[Chorus]

e|---------------------------------------|
B|---------------------------------------|
G|--8-8---7--7--5--5-5---8-8--5--7--7-7--|
D|--8-8---8--8--6--6-6---8-8--6--8--8-8--|
A|---------------------------------------|
E|---------------------------------------|

e|---------------------------------------|
B|---------------------------------------|
G|--8-8---7--7--5--5-5----8--5--7---7-7--|
D|--8-8---8--8--6--6-6----8--6--8---8-8--|
A|---------------------------------------|
E|---------------------------------------|


[Outro]

e|-----------------------------------------------|
B|-----------------------------------------------|
G|--8--5--7---7-7----8--5--7---7-7------8--5--7--|
D|--8--6--8---8-8----8--6--8---8-8------8--6--8--|
A|-----------------------------------------------|
E|-----------------------------------------------|
            
Submit corrections

↑ Back to top | Tablatures and chords for acoustic guitar and electric guitar, ukulele, drums are parodies/interpretations of the original songs. You may use it for private study, scholarship, research or language learning purposes only