Home » M » Microphones »

Microphones - I Want Wind To Blow Tabs

Artists:  A B C D E F G H I J K L M N O P Q R S T U V W X Y Z # 

I Want Wind To Blow Tabs

(ver. 2) Click to play this song!
Microphones
Chords

G---C----------G---------F#mi-G--------  <-- if you wanna follow with bass notes (you can also be lazy and
                                                                                  just play these as chords)

|--------------------------------------|
|--------------------------------------|
|-0-0-0----0-0-0-----------------------|
|-5-4-0----2-0-------0-----------------|
|---3-3----3---2-----2-----0--2--------|
|-3----------3-3-----3-----2--3--------|

|--------------------------------------|
|--------------------------------------|
|-0-4-0----0-0-0-0---------------------|
|-5-5-2----2-4-5-0----0----------------|
|---3-3----3----------2-----0--2-------|
|-3----------3-3-3----3-----2--3-------|

Very similar to other tab however changes the bass notes 
there are some live performances on youtube you can check 
out to get better timing and hear it better

Bass Notes

This is what makes this song hard.
In conjunction with the chords this 
is called a poly rhythm (multiple overlaying rhythms)
any way you can totally pick this while playing the 
chords and he does in live solo performances


|---------------------------------------|
|---------------------------------------|
|---------------------------------------|
|-------------------------2---2------2--|
|----2---2------2------3---3----3-3----3|
|-3---3----3-3----3---------------------|
                       **

|---------------------------------------|
|---------------------------------------|
|---------------------------------------|
|---------------------------------------|
|----2---2------2----0---2---2-----2----|
|-3---3----3-3----2---3---3---3-3----3--|

**
this change is in the middle of the phrase (musical sentence) 
adding another layer to the poly rhythm, I dont really know 
how to explain it, however this change is going to come before
you're "ready" for it so practice this change to get better at the song

Picking part

|---------------------------------------|
|---------------------------------------|
|---------------------------------------|
|--5--4--0------2--0--------------------|
|----------------------2------2--0--2---|
|---------------------------------------|

|---------------------------------------|
|---------------------------------------|
|-----4---------------------------------|
|--5-----0------2--4--5--0----0---------|
|--------------------------------0--2---|
|---------------------------------------|

Outro

|---------------------------------------|
|--5--3---5-----------------------------|
|--4-------------2--2----4--2---0-------|
|--5--------5----0----------------------|
|--3-------------2----------------------|
|----------------3----------------------|
            
Submit corrections

↑ Back to top | Tablatures and chords for acoustic guitar and electric guitar, ukulele, drums are parodies/interpretations of the original songs. You may use it for private study, scholarship, research or language learning purposes only