Home » M » Michelle Branch »

Michelle Branch - It's You Tabs

Artists:  A B C D E F G H I J K L M N O P Q R S T U V W X Y Z # 

It's You Tabs

(ver. 1) Click to play this song!
Michelle Branch
Use a cappo on the 4th fret

Verse 1:

    D         Cadd9   G
e-------2---------0-----------0----- 
b---------3---------3-------3---3---  
g-----2---------0-----------------0-  
d---0---------2-----------0---------  
a-----------------------2-----------  
e---------------------3-------------  

Chorus:

   G        D       Em
e------0--------2-------0----------- 
b--------3--------3-------0---------  
g----0--------2-------0-------------
d-----------0-------2---------------  
a-----------------------------------  
e--3-------------------------------- 

Verse 2:

    D         Cadd9   G
e-------2---------0-----------0----- 
b---------3---------3-------3---3---  
g-----2---------0-----------------0-  
d---0---------2-----------0---------  
a-----------------------2-----------  
e---------------------3-------------  

Chorus:

   G        D       Em
e------0--------2-------0----------- 
b--------3--------3-------0---------  
g----0--------2-------0-------------
d-----------0-------2---------------  
a-----------------------------------  
e--3-------------------------------- 


Verse 1:

If tomorrow never comes
I would want one thing
I would tell it to the stars and the sun
I would write it for the world to see

Chorus:

And it's yoooouuuu
The light changes when your in the room
Oh it's yooouuu
Oh it's you

Verse 2:

If tomorrow never comes
I would want just one wish
To kiss your quite mouth
And trace the steps with my finger tips

Chorus:

And it's yoooouuuu
The light changes when your in the room
Oh it's yooouuu
Oh it's you

oh it's you oh

oh it's yoooouuuu 
oh it's you

(Strum G slowly here)
oh it's yooooooouuuuuuuu
            
Submit corrections

↑ Back to top | Tablatures and chords for acoustic guitar and electric guitar, ukulele, drums are parodies/interpretations of the original songs. You may use it for private study, scholarship, research or language learning purposes only