» » »

Michael W Smith - Wired For Sound Tabs

Artists:  A B C D E F G H I J K L M N O P Q R S T U V W X Y Z # 

Wired For Sound Tabs

(ver. 2) Click to play this song!
Michael W Smith
 Rating:
4/5 (4 votes)

 Wired For Sound lessons Tabs too difficult? Try these video lessons and learn fast
 
                

This is a song file from a DVD with the title track from Michael W. Smith's 20th 
year Celebration DVD. I'm definitely the first to tab
this song, so bear with me if some of it is horribly
wrong. Some of the solo may be a half-step off, but
it is definitely close.

Intro:
Play this solo twice
                                             (A)
e|--------------------------------------------------|
B|--------------------------------------------2-----|
G|-9-7-9-11-9-7-9-----------------------------2-----|
D|----------------7-5-7-9-7b-5-7--0-2-4-2-0-2-2-----|
A|------------------------------5-------------------|
E|--------------------------------------------------|

The following chords:
Play these twice also
  (A)  (A#5) (F5)   (C5)  (G5)  (D5)
e|--------------------------------------------------|
B|-2------------------------------------------------|
G|-2-----3-----------5-----------7------------------|
D|-2-----3-----3-----5-----5-----7------------------|
A|-------1-----3-----3-----5-----5------------------|
E|-------------1-----------3------------------------|
comin on like a title wave that washes through the brain the state of mind
E|--------------------------------------------------|
B|--------------------------------------------------|
G|-9-8-6-----8b-6---------9-8-6-----8b-6-----7------|
D|--------------------------------------------------|
A|--------------------------------------------------|
E|--------------------------------------------------|

Play the Power chord group thrice:
  (A)  (A#5)  (F5)  (C5)  (G5) (D5)
e|--------------------------------------------------|
B|-2------------------------------------------------|
G|-2-----3-----------5-----------7------------------|
D|-2-----3-----3-----5-----5-----7------------------|
A|-------1-----3-----3-----5-----5------------------|
E|-------------1-----------3------------------------| 
Then the beginning solo again twice, followed by the high solo:
                                             (A)
e|--------------------------------------------------|
B|--------------------------------------------2-----|
G|-9-7-9-11-9-7-9-----------------------------2-----|
D|----------------7-5-7-9-7b-5-7--0-2-4-2-0-2-2-----|
A|------------------------------5-------------------|
E|--------------------------------------------------|

                                              (A)
e|--------------------------------------------------|
B|--------------------------------------------2-----|
G|-9-7-9-11-9-7-9-----------------------------2-----|
D|----------------7-5-7-9-7b-5-7--0-2-4-2-0-2-2-----|
A|------------------------------5-------------------|
E|--------------------------------------------------|


e|-12-10-12-12br-12-10-12---------------------------|
B|-----------------------10-8-10-10br-10-8-10-----7-|
G|--------------------------------------------7-9---|
D|--------------------------------------------------|
A|--------------------------------------------------|
E|--------------------------------------------------|

e|--------------------------------------------------|
B|-9-10---------------------------------------------|
G|-----9-7------------------------------------------|
D|--------5-----------------------------------------|
A|--------------------------------------------------|
E|--------------------------------------------------|


e|-12-10-12-12br-12-10-12---------------------------|
B|-----------------------10-8-10-10br-10-8-10-----7-|
G|--------------------------------------------7-9---|
D|--------------------------------------------------|
A|--------------------------------------------------|
E|--------------------------------------------------|

e|--------------------------------------------------|
B|-9-10----10---------------------------------------|
G|-----9-7------------------------------------------|
D|--------------------------------------------------|
A|--------------------------------------------------|
E|--------------------------------------------------|

Then finish playing the chords 4 times
  (A)   (A#5)(F5)   (C5)  (G5)  (D5)
e|--------------------------------------------------|
B|-2------------------------------------------------|
G|-2-----3-----------5-----------7------------------|
D|-2-----3-----3-----5-----5-----7------------------|
A|-------1-----3-----3-----5-----5------------------|
E|-------------1-----------3------------------------| 
See more at my site- flavors.me/zheil9152                                                 
Follow me on twitter for next tab release: @zheil9152
            
Submit corrections


        Wired For Sound lessons Hard to play? Try these video lessons and learn fast Wired For Sound lessons
        
↑ Back to top | Tablatures and chords for acoustic guitar and electric guitar, ukulele, drums are parodies/interpretations of the original songs. You may use it for private study, scholarship, research or language learning purposes only