» » »

Michael Schenker - Setting Sun Tabs

Artists:  A B C D E F G H I J K L M N O P Q R S T U V W X Y Z # 

Setting Sun Tabs

(ver. 1) Click to play this song!
Michael Schenker
 Rating:
4/5 (4 votes)

 Setting Sun lessons Tabs too difficult? Try these video lessons and learn fast
 
                -------------------------------------------------------------------------------
-------------------------------------------------------------------------------
MICHAEL SCHENKER GROUP



Tuning:standard




e|----------------------------------|----------------------------------|
B|-------------------------------6~-|-(6~)--------------------------6~-|
G|-----------------------2-------5~-|-(5~)------------------2-------5~-|
D|-----------------------2----------|-----------------------2----------|
A|-----------------------0----------|-----------------------0----------|
E|--------0---1-0-1--3b4------------|--------0---1-0-1--3b4------------|

e|----------------------------------|----------------------------------|
B|-(6~)--------------------------6~-|-(6~)-----------------------------|
G|-(5~)------------------2-------5~-|-(5~)------------------2----------|
D|-----------------------2----------|-----------------------2----------|
A|-----------------------0----------|-----------------------0--4h5-4h5-|
E|--------0---1-0-1--3b4------------|--------0---1-0-1--3b4------------|


          There's a way                         Where we go
e|----------------------------------|----------------------------------|
B|-------------------------------6~-|-(6~)--------------------------6~-|
G|-----------------------2-------5~-|-(5~)------------------2-------5~-|
D|-----------------------2----------|-----------------------2----------|
A|-----------------------0----------|-----------------------0----------|
E|--------0---1-0-1--3b4------------|--------0---1-0-1--3b4------------|

   To take the longest road to find our way
e|----------------------------------|------------------------------------------|
B|-(6~)--------------------------6~-|-(6~)-------------------------------------|
G|-(5~)------------------2-------5~-|-(5~)------------------2------------------|
D|-----------------------2----------|-----------------------2------------------|
A|-----------------------0----------|-----------------------0--4h5-4h5-1h2-1h2-|
E|--------0---1-0-1--3b4------------|--------0---1-0-1--3b4--------------------|

  C'mon
e|--------------------------------|--------------------------------|
B|--------------------------------|--------------------------------|
G|--------------------------------|--------------------------------|
D|--------------------------------|--------------------------------|
A|--------------4h5-4h5--1h2-1h2--|--------------4h5-4h5--1h2-1h2--|
E|--0--1b-2--3--------------------|--0--1b-2--3--------------------|

e|--------------------------------|--------------|
B|--------------------------------|--------------|
G|--------------------------------|--------------|
D|--------------------------------|--------------|
A|--------------4h5-4h5--1h2-1h2--|--------------|
E|--0--1b-2--3--------------------|--0--1b-2--3--|

  It's hard to notice           What is in the sky
e|-----------------------------|-----------------------------|
B|-----------------------------|-----------------------------|
G|----------some single-note blues scale line----------------|
D|-------------based on the played chords--------------------|
A|-----------------------------|-----------------------------|
E|-----------------------------|-----------------------------|
 |                             |                             |
e|-----------------------------|-----------------------------|
B|-----------------------------|-----------------------------|
G|-----------------------------|-----------------------------|
D|---4--4--4--4---4--4--4--4---|---4--4--4--4---4--4--4--4---|
A|---4--4--4--4---4--4--4--4---|---4--4--4--4---4--4--4--4---|
E|---2--2--2--2---2--2--2--2---|---2--2--2--2---2--2--2--2---|


  When you're staring at the sun
e|-----------------------------|-----------------------------|
B|-----------------------------|-----------------------------|
G|----------some single-note blues scale line----------------|
D|-------------based on the played chords--------------------|
A|-----------------------------|-----------------------------|
E|-----------------------------|-----------------------------|
 |                             |                             |
e|-----------------------------|-----------------------------|
B|-----------------------------|-----------------------------|
G|-----------------------------|-----------------------------|
D|---7--7--7--7---7--7--7--7---|---7--7--7--7---7--7--7--7---|
A|---7--7--7--7---7--7--7--7---|---7--7--7--7---7--7--7--7---|
E|---5--5--5--5---5--5--5--5---|---5--5--5--5---5--5--5--5---|

  It's hard to recognise        What is passing by 
e|-----------------------------|-----------------------------|
B|-----------------------------|-----------------------------|
G|----------some single-note blues scale line----------------|
D|-------------based on the played chords--------------------|
A|-----------------------------|-----------------------------|
E|-----------------------------|-----------------------------|
 |                             |                             |
e|-----------------------------|-----------------------------|
B|-----------------------------|-----------------------------|
G|-----------------------------|-----------------------------|
D|---4--4--4--4---4--4--4--4---|---4--4--4--4---4--4--4--4---|
A|---4--4--4--4---4--4--4--4---|---4--4--4--4---4--4--4--4---|
E|---2--2--2--2---2--2--2--2---|---2--2--2--2---2--2--2--2---|

  If you're overlooking this chance
e|-----------------------------|------------------------------|
B|-----------------------------|------------------------------|
G|----------some single-note blues scale line-----------------|
D|-------------based on the played chords---------------------|
A|-----------------------------|------------------------------|
E|-----------------------------|------------------------------|
 |                             |                              |
e|-----------------------------|------------------------------|
B|-----------------------------|------------------------------|
G|---7--7--7--7---7--7--7--7---|---7--7--7--7---7--7--7--7----|
D|---7--7--7--7---7--7--7--7---|---7--7--7--7---7--7--7--7-x\-|
A|---5--5--5--5---5--5--5--5---|---5--5--5--5---5--5--5--5-x\-|
E|-----------------------------|---------------------------x\-|


          There's a way where we go      When we take the longest road
e|----------------------------------|----------------------------------|
B|-------------------------------6~-|-(6~)--------------------------6~-|
G|-----------------------2-------5~-|-(5~)------------------2-------5~-|
D|-(x\)------------------2----------|-----------------------2----------|
A|-(x\)------------------0----------|-----------------------0----------|
E|-(x\)---0---1-0-1--3b4------------|--------0---1-0-1--3b4------------|

        To     find      our        destination
e|----------------------------------|----------------------------------|
B|-(6~)--------------------------6~-|-(6~)-----------------------------|
G|-(5~)------------------2-------5~-|-(5~)------------------2----------|
D|-----------------------2----------|-----------------------2----------|
A|-----------------------0----------|-----------------------0--4h5-4h5-|
E|--------0---1-0-1--3b4------------|--------0---1-0-1--3b4------------|

          There's a way how to love    When you think you're almost done
e|----------------------------------|----------------------------------|
B|-------------------------------6~-|-(6~)--------------------------6~-|
G|-----------------------2-------5~-|-(5~)------------------2-------5~-|
D|-----------------------2----------|-----------------------2----------|
A|-----------------------0----------|-----------------------0----------|
E|--------0---1-0-1--3b4------------|--------0---1-0-1--3b4------------|
          Wanting             fascination
e|----------------------------------|----------------------------------|
B|-(6~)--------------------------6~-|-(6~)-----------------------------|
G|-(5~)------------------2-------5~-|-(5~)------------------2----------|
D|-----------------------2----------|-----------------------2----------|
A|-----------------------0----------|-----------------------0--4h5-4h5-|
E|--------0---1-0-1--3b4------------|--------0---1-0-1--3b4------------|

| /  slide up
| \  slide down
| h  hammer-on
| p  pull-off
| ~  vibrato
| +  harmonic
| x  Mute note
===============================================================================
            
Submit corrections


        Setting Sun lessons Hard to play? Try these video lessons and learn fast Setting Sun lessons
        
↑ Back to top | Tablatures and chords for acoustic guitar and electric guitar, ukulele, drums are parodies/interpretations of the original songs. You may use it for private study, scholarship, research or language learning purposes only