» » »

Michael Nyman - Wonderland Tabs

Artists:  A B C D E F G H I J K L M N O P Q R S T U V W X Y Z # 

Wonderland Tabs

(ver. 1) Click to play this song!
Michael Nyman
 Rating:
4.4/5 (5 votes)

 Wonderland lessons Tabs too difficult? Try these video lessons and learn fast
 
                    [Franklyn]
                                                                               **AH on top note
e|---------------------------3--3--3--3--3--3--3--3--8--8--8--8--8--8--8--8--3--3--3--3--3--3--3--3----|
B|--1--1--1--1--1--1--1--1-----------------------------------------------------------------------------|
G|--0-----0-----0-----0------0-----0-----0-----0-----5-----5-----5-----5-----0-----0-----0-----0-------|
D|--2-----2-----2-----2------2-----2-----2-----2-----7-----7-----7-----7-----2-----2-----2-----2-------|
A|--3-----3-----3-----3------2-----2-----2-----2-----0-----0-----0-----0-----2-----2-----2-----2-------|
E|---------------------------------------------------------------------------3-----3-----3-----3-------|


      **                                              **                      **          
e|--1--1--1--1--1--1--1--1-----------------------------------------------------------------------------|
B|-------------------------+0++0++0++0++0++0++0++0+-1--1--1--1--1--1--1--1-----------------------------|
G|--2-----2-----2-----2-----------------------------0-----0-----0-----0----------------+0++0++0++0+----|
D|--3-----3-----3-----3-----0-----0-----0-----0-----2-----2-----2-----2-----3--3--3--3-----------------|
A|--0-----0-----0-----0-----2-----2-----2-----2-----3-----3-----3-----3-----3-----3-----5-----5--------|
E|--------------------------3-----3-----3-----3-----0-----0-----0-----0-----5-----5-----7-----7--------|


e|-----------------------------------------------------------------------------------------------------|
B|--------------------------0-----0--0--0--0--0--0--0-----------------------------0--------------------|
G|-----0--0--0--0--0--0--0-----------------------------------------------------5-----------------------|
D|--5-----5-----5-----5--------5-----5-----5-----5-----3-----3--3--3--3--3--3-----------2--2--2--2--2--|
A|--7-----7-----7-----7--------7-----7-----7-----7--------3-----3-----3-----3--------2-----2-----2-----|
E|--8-----8-----8-----8--------7-----7-----7-----7--------5-----5-----5-----5--------3-----3-----3-----|


e|--------------------------------------------------------0--1--3-----3--------------------------------|
B|-----0-----------------------0--1--3-----3--3--3--3--3-----------------------------------------------|
G|--------2-----2--2--2--2--2--2--------0-----0-----0-----0---------------0--0--0--0--0--0--2-----2----|
D|--2--------3-----3-----3-----3--------0-----0-----0-----0--------2------2-----2-----2--------3-------|
A|--2--------0-----0-----0-----0--------2-----2-----2-----2--------3------3-----3-----3--------3-------|
E|--3--------------------------------------------------------------0------0-----0-----0--------5-------|



e|-----------------------------------------------------------------------------------------------------|
B|--------------------0-----0--0--0--0--0--0--1--1--------0--1--0--------------------0--1--0-----------|
G|--2--2--2--2--2--2-----0-----0-----0-----0-----0--0--0--0-----0--0--------2--------2-----0--0--------|
D|--3-----3-----3--------0-----0-----0-----0-----2--2--2--2-----2--2-----2--3--3--3--3-----2--2-----2--|
A|--3-----3-----3--------2-----2-----2-----2-----3--3--3--3-----2--2--2--2--3--3--3--0-----------2--2--|
E|--5-----5-----5-----------------------------------------------------------5--5--5--------3--3--3--3--|



e|-----------------------------------------------------3-----3--3--3--3--3--3--------------------------|
B|-----------------------------------------------------------------------------------------------------|
G|--2--2--2--2--2--2--2--2--0-----0--0--0--0--0--0--0--------------------------0--2-----2--2--2--2--2--|
D|--3-----3-----3-----3--------5-----5-----5-----5--------2-----2-----2-----2--------3-----3-----3-----|
A|--3-----3-----3-----3--------5-----5-----5-----5--------3-----3-----3-----3--------3-----3-----3-----|
E|--5-----5-----5-----5--------7-----7-----7-----7--------0-----0-----0-----0--------5-----5-----5-----|

                                        [Nadia]

e|---------------------------------------0--0--0--0--0--0--0--0--3--0--0--0---8--8--7--3--1--3--3------|
B|--------0----0--0--0--0--0--0--1-------1-----0-----------1-----0------------------0-----------1--1---|
G|--2--2-----0----0-----0-----0-----------------------------------------------5-----0------------------|
D|--3--------0----0-----0-----0----------2-----2-----------2-----2------------------------------2------|
A|--3--------2----2-----2-----2----------0-----------------0------------------7----(8)----------0------|
E|--5------------------------------------------1-----------------1------------5-----1------------------|
                                                                                  thumb(or 8 on A string)

                                                                                     
e|--3--3--5--3--7--7--7-----12--15--15--15--13--12--10--12--13--13--12---------------------------------|
B|--0-----------6-----0--8-------------------0-----------------------0-----12*-------------------------|
G|--------------------0-------------10-------0--------------10-------0----------------5**-------12*----|
D|--2-----------7-------------------10----------------------10-------------------7*--------7*----------|
A|--------------5--------------------0-----------------------0-----------------------------------------|
E|--1-----------------0----------------------7-----------------------7---------------------------------|

                                        [Debbie]

e|--0--0--0--0--0--0--0--0--0-----------0--1--3--3-----1--0--1--3--3-----1--1--0-----0--0-----1--1--0--|
B|--1-----0-----------1-----0-----------------------1-----1--0--------1--3--3--1--3-----1-----3--3--1--|
G|--------------------------------------0--0-----2--------0--0-----2--------0-----4--5-----2-----0-----|
D|--2-----2-----------2-----2-----------2--2-----3-----------------3--------2-----2-----3--------2-----|
A|--0-----------------0-----------------3--2-----0--------3--2-----0--------3-----2-----0--------3-----|
E|--------1-----------------1--------------------------------------------------------------------------|



e|-----0--0-----------------------------------0-----------------------0--------------------------------|
B|--3-----1-----------------0--1--0--1--3--------3--1-----0--1--3--------3--1-----------1--------1-----|
G|--4--5-----2--------0--2-----0-----------0-----------0-----------0-----------------2--------2--------|
D|--2-----3--------------------2-----------2-----------2-----------2--------------3--------3-----------|
A|--2-----0--------------------3-----------2-----------3-----------2-----------0-----------------------|
E|-----------------------------------------------------------------------------------------------------|



e|-----------------0----------------------0------------------------------------------------------------|
B|--1--0--1--3--------3--1----0--1--3--------3--1-------------0--1--0--1--0--------0--1--0--1----------|
G|--0-----------0-----------0----------0-------------------2--------------------0----------------------|
D|--2-----------2-----------2----------2----------------3--------------------2-------------------------|
A|--3-----------2-----------3----------2-------------0-------------------------------------------------|
E|------------------------------------------------------------------------3----------------------------|



e|-----------------------------------------------------------3--------3------1--------1--------0-------|
B|--------0--1-----0--1--3--------0--1-----3--1--0--1-----1------------------------1--------------3----|
G|--2-----2-----2-----2-----0--0--0-----0-----0--------0-----------0-----0---2--2--2-----0--0--0-------|
D|-----3--3-----3-----3-----0-----0-----0-----0-----2-----2-----2-----2------3-----3-----0-----0-------|
A|--0-----0-----0-----0-----2-----2-----2-----2-----3-----3-----3-----3------0-----0-----2-----2-------|
E|--------------------------------------------------0-----0-----0-----0--------------------------------|



e|--0--------------------------0--------------------0-----1--3-----------------------------------------|
B|-----------3--1--0-----------1--------3--1--0--3-----------------------------------0--0--------0--1--|
G|--0--0--0--0-----0-----0--------2--2--2-----0--0--0--0-----------0-----2--------2-----0--0--0--0-----|
D|--2--2--2--2-----2--2--2--2--3--3--3--3-----2--2--2--2-----2--2--2--2--3--3--3--3-----0--0--0--0-----|
A|--3--3--3--3-----2--2--2--2--0--0--0--0--------------------3--3--3--3--3--3--3--3-----2--2--2--2-----|
E|--------------------------------------------3--3--3--3-----0--0--0--0--5--5--5--5--------------------|



e|-----------------0-----------------------------------------------0-----------------------------------|
B|--1--0--1--3--------3--1--------0--1--------0--1--1--0--1--3--------3--1--------0--1--------0--1-----|
G|--0-----0-----0-----0-----------2-----------2-----0-----0-----0-----0-----------2-----------2--------|
D|--2-----2-----2-----2--------3--3--------3--3-----2-----2-----2-----2--------3--3--------3--3--------|
A|--3-----3-----2-----2-----0-----0-----0-----0-----3-----3-----2-----2-----0-----0-----0-----0--------|
E|-----------------------------------------------------------------------------------------------------|



e|-----------------------0--1--------1--------0--------------3--------1--0--0-----0--3----3--------0---|
B|--0-----0--1--------3-----------1--------------3--3-----3--------------------1------------+12+-------|
G|-----------------0--0-----2--2--2-----2--2--2-----0--0--0-----0--0--0-----0-----0-----0-----0--------|
D|-----2--2-----2-----------3-----3-----3-----3-----0-----0-----0-----0-----2-----2-----2-----2--------|
A|--------2-----2-----2-----0-----0-----0-----0-----2-----2-----2-----2-----3-----3-----2-----2--------|
E|--3-----3-----3-----3--------------------------------------------------------------------------------|



e|--------0--3-----3------------------3--1--------0--------------0-------------------------------------|
B|-----1-------------+12+-+13+-----------------------3--------3-----------3--1--1----------------------|
G|--------2------------------------2--2-----2--2--2--------0-----------0--------0----------------------|
D|--------3-----0------0--------------3-----3-----3-----0-----0-----0-----0-----2----------------------|
A|--0-----0-----2------2--------0-----0-----0-----0-----2-----2-----2-----2-----3----------------------|
E|--------------3------3--------------------------------------------------------3----------------------|

            
Submit corrections


        Wonderland lessons Hard to play? Try these video lessons and learn fast Wonderland lessons
        
↑ Back to top | Tablatures and chords for acoustic guitar and electric guitar, ukulele, drums are parodies/interpretations of the original songs. You may use it for private study, scholarship, research or language learning purposes only