Home » M » Michael Monroe »

Michael Monroe - Not Fakin It Bass

Artists:  A B C D E F G H I J K L M N O P Q R S T U V W X Y Z # 

Not Fakin It Bass

(ver. 1) Click to play this song!
Michael Monroe
[Intro]
 
G|--------------------------------------------------------------------|
D|------------------3-3-3-3-3-3-3-3-----------------------------------|
A|--1-1-1-1-1-1-1-1-----------------3-3-3-3-3-3-3-3-3-3-3-3-3-3-3-3---|
E|--------------------------------------------------------------------|
 
G|--------------------------------------------------------------------|
D|--------------------------------------------------------------------|
A|--1-1-1-1-1-1-1-1-----------------3-3-3-3-3-3-3-3-3-3---------------|
E|------------------1-1-1-1-1-1-1-1---------------------0-0-1-1-3-3---|
 
G|--------------------------------------------------------------------|
D|------------------3-3-3-3-3-3-3-3-----------------------------------|
A|--1-1-1-1-1-1-1-1-----------------3-3-3-3-3-3-3-3-3-3-3-3-3-3-3-3---|
E|--------------------------------------------------------------------|
 
G|--------------------------------------------------------------------|
D|--------------------------------------------------------------------|
A|--1-1-1-1-1-1-1-1-----------------3-3-3-3-3-3-3-3-3-3-3-3-3-3-------|
E|------------------1-1-1-1-1-1-1-1-----------------------------1-----|
 
[Verse 1]
 
G|--------------------------------------------------------------------|
D|--------------------------------------------------------------------|
A|--------------------------------------------------------------------|
E|--3-3-3-3-3-3-3-3-3-3-3-3-3-3-3-3-3-3-3-3-3-3-3-3-3-3-3-3-3-3-3-3---|
 
G|--------------------------------------------------------------------|
D|------------------------------------------------------5-3-----------|
A|----------------------------------------------------------5-4-3-----|
E|--3-3-3-3-3-3-3-3-3-3-3-3-3-3-3-3-3-3-3-3-3-3-3-3-3-3-----------6---|
 
G|--------------------------------------------------------------------|
D|--------------------------------------------------------------------|
A|----------------------------------1-1-1-1-1-1-1-1-1-1-1-1-1-1-1-1---|
E|--3-3-3-3-3-3-3-3-3-3-3-3-3-3-3-3-----------------------------------|
 
G|--------------------------------------------------------------------|
D|--------------------------------------------------------------------|
A|--3-3-3-3-3-3-3-3-3-3-3-3-3-3-3-3-5-5-5-5-5-5-5-5-5-5-5-5-5-5-5-5---|
E|--------------------------------------------------------------------|
 
G|--------------------------------------------------------------------|
D|--------------------------------------------------------------------|
A|--------------------------------------------------------------------|
E|--3-3-3-3-3-3-3-3-3-3-3-3-3-3-3-3-3-3-3-3-3-3-3-3-3-3-3-3-3-3-3-3---|
 
G|--------------------------------------------------------------------|
D|------------------------------------------------------5-3-----------|
A|----------------------------------------------------------5-4-3-----|
E|--3-3-3-3-3-3-3-3-3-3-3-3-3-3-3-3-3-3-3-3-3-3-3-3-3-3-----------6---|
 
G|--------------------------------------------------------------------|
D|--------------------------------------------------------------------|
A|----------------------------------1-1-1-1-1-1-1-1-1-1-1-1-1-1-1-1---|
E|--3-3-3-3-3-3-3-3-3-3-3-3-3-3-3-3-----------------------------------|
 
G|----------------------------------------------------5---6-7---------|
D|--------------------------------------------5---7-------------------|
A|--3-3-3-3-3-3-3-3-3-3-3-3-3-3-3-3-5-5---8---------------------------|
E|--------------------------------------------------------------------|
 
[Chorus]
 
G|--------------------------------------------------------------------|
D|--------------------------------------------------------------------|
A|------2-2-5-5-2-2-----2-2-5-5-2-2-----2-2-5-5-2-2-----0-0-1-1-2-2---|
E|--3-3-------------3-3-------------3-3-------------3-3---------------|
 
G|--------------------------------------------------------------------|
D|------2-2-5-5-2-2-----2-2-5-5-2-2-----------------------------------|
A|--3-3-------------3-3-----------------2-2-5-5-2-2-----2-2-5-5-2-2---|
E|----------------------------------3-3-------------3-3---------------|
 
G|--------------------------------------------------------------------|
D|--------------------------------------------------------------------|
A|--1-1-1-1-1-1-1-1-----------------3-3-3-3-3-3-3-3-3-3-3-3-3-3-3-3---|
E|------------------1-1-1-1-1-1-1-1-----------------------------------|
 
G|--------------------------------------------------------------------|
D|--------------------------------------------------------------------|
A|--1-1-1-1-1-1-1-1-----------------3-3-3-3-3-3-3-3-3-3-3-3-3-3-------|
E|------------------1-1-1-1-1-1-1-1-----------------------------1-----|
 
[Verse 2]
 
G|--------------------------------------------------------------------|
D|--------------------------------------------------------------------|
A|--------------------------------------------------------------------|
E|--3-3-3-3-3-3-3-3-3-3-3-3-3-3-3-3-3-3-3-3-3-3-3-3-3-3-3-3-3-3-3-3---|
 
G|--------------------------------------------------------------------|
D|------------------------------------------------------5-3-----------|
A|----------------------------------------------------------5-4-3-----|
E|--3-3-3-3-3-3-3-3-3-3-3-3-3-3-3-3-3-3-3-3-3-3-3-3-3-3-----------6---|
 
G|--------------------------------------------------------------------|
D|--------------------------------------------------------------------|
A|----------------------------------1-1-1-1-1-1-1-1-1-1-1-1-1-1-1-1---|
E|--3-3-3-3-3-3-3-3-3-3-3-3-3-3-3-3-----------------------------------|
 
G|----------------------------------------------------5---6-7---------|
D|--------------------------------------------5---7-------------------|
A|--3-3-3-3-3-3-3-3-3-3-3-3-3-3-3-3-5-5---8---------------------------|
E|--------------------------------------------------------------------|
 
[Chorus]
 
G|--------------------------------------------------------------------|
D|--------------------------------------------------------------------|
A|------2-2-5-5-2-2-----2-2-5-5-2-2-----2-2-5-5-2-2-----0-0-1-1-2-2---|
E|--3-3-------------3-3-------------3-3-------------3-3---------------|
 
G|--------------------------------------------------------------------|
D|------2-2-5-5-2-2-----2-2-5-5-2-2-----------------------------------|
A|--3-3-------------3-3-----------------2-2-5-5-2-2-----2-2-5-5-2-2---|
E|----------------------------------3-3-------------3-3---------------|
 
G|--------------------------------------------------------------------|
D|--------------------------------------------------------------------|
A|--1-1-1-1-1-1-1-1-----------------3-3-3-3-3-3-3-3-3-3-3-3-3-3-3-3---|
E|------------------1-1-1-1-1-1-1-1-----------------------------------|
 
G|--------------------------------------------------------------------|
D|--------------------------------------------------------------------|
A|--1-1-1-1-1-1-1-1-----------------3-3-3-3-3-3-3-3-3-3-3-3-3-3-------|
E|------------------1-1-1-1-1-1-1-1-----------------------------1-----|
 
[Guitar Solo]
 
G|--------------------------------------------------------------------|
D|--------------------------------------------------------------------|
A|--------------------------------------------------------------------| x2
E|--3-3-3-3-3-3-3-3-3-3-3-3-3-3-3-3-3-3-3-3-3-3-3-3-3-3-3-3-3-3-3-3---|
 
G|--------------------------------------------------------------------|
D|--------------------------------------------------------------------|
A|--------------------------------------------------------------------|
E|--5-5-5-5-5-5-5-5-5-5-5-5-5-5-5-5-5-5-5-5-5-5-5-5-5-5-5-5-5-5-5-5---|
 
G|--------------------------------------------------------------------|
D|--------------------------------------------------------------------|
A|--3-3-3-3-3-3-3-3-3-3-3-3-3-3-3-3-5-5-5-5-5-5-5-5-5-5-5-5-5-5-5-5---|
E|--------------------------------------------------------------------|
 
[Chorus]
 
G|--------------------------------------------------------------------|
D|--------------------------------------------------------------------|
A|------2-2-5-5-2-2-----2-2-5-5-2-2-----2-2-5-5-2-2-----0-0-1-1-2-2---|
E|--3-3-------------3-3-------------3-3-------------3-3---------------|
 
G|--------------------------------------------------------------------|
D|------2-2-5-5-2-2-----2-2-5-5-2-2-----------------------------------|
A|--3-3-------------3-3-----------------2-2-5-5-2-2-----2-2-5-5-2-2---|
E|----------------------------------3-3-------------3-3---------------|
 
G|--------------------------------------------------------------------|
D|--------------------------------------------------------------------|
A|--1-1-1-1-1-1-1-1-----------------3-3-3-3-3-3-3-3-3-3-3-3-3-3-3-3---|
E|------------------1-1-1-1-1-1-1-1-----------------------------------|
 
G|--------------------------------------------------------------------|
D|------------------3-3-3-3-3-3-3-3-----------------------------------|
A|--1-1-1-1-1-1-1-1-----------------3-3-3-3-3-3-3-3-3-3-3-3-3-3-3-3---| x2
E|--------------------------------------------------------------------|
 
G|----------------------------------------------------------------------------|
D|----------------------------------------------------------------------------|
A|--1-1-1-1-1-1-1-1-----------------3-3-3-3-3-3-3-3/15-15-15-15-15-15-15-15---|
E|------------------1-1-1-1-1-1-1-1-------------------------------------------|
 
G|--------------------------------------------------------------------|
D|--------------------------------------------------------------------|
A|--1-1-1-1-1-1-1-1-----------------3-3-3-3-3-3-3-3-3-3---------------|
E|------------------1-1-1-1-1-1-1-1---------------------0-0-1-1-3-3---|
 
G|--------------------------------------------------------------------|
D|--------------------------------------------------------------------|
A|--1-1-1-1-1-1-1-1-----------------3-3-3-3-3-3-3-3-3-3-3-3-3-3-3-3---|
E|------------------1-1-1-1-1-1-1-1-----------------------------------|
 
G|----------------------------------------------------------------------------|
D|----------------------------------------------------------------------------|
A|--1-1-1-1-1-1-1-1-----------------3-3-3-3-3-3-3-3/15/15/15/15/15/15/15/15---|
E|------------------1-1-1-1-1-1-1-1-------------------------------------------|
 
G|----------------------------------------------------------------------------|
D|----------------------------------------------------------------------------|
A|--11-11-11-11-11-11-11-11\8-8-8-8-8-8-8-8\3-3-3-3-3-3-3-3-3-3-3-3-3-3-3-3---|
E|----------------------------------------------------------------------------|
 
Repeat to fade
G|--------------------------------------------------------------------|
D|--------------------------------------------------------------------|
A|--1-1-1-1-1-1-1-1-----------------3-3-3-3-3-3-3-3-3-3-3-3-3-3-3-3---|
E|------------------1-1-1-1-1-1-1-1-----------------------------------|
            
Submit corrections

↑ Back to top | Tablatures and chords for acoustic guitar and electric guitar, ukulele, drums are parodies/interpretations of the original songs. You may use it for private study, scholarship, research or language learning purposes only