Home » M » Michael Monroe »

Michael Monroe - Junk Planet Bass

Artists:  A B C D E F G H I J K L M N O P Q R S T U V W X Y Z # 

Junk Planet Bass

(ver. 1) Click to play this song!
Michael Monroe
[Intro]
 
G|--------------------------------------------------------------------|
D|--------------------------------------------------------------------|
A|--------------------------------------------------------------------| x6
E|--5---5---5-2-4-5---5-5---5-0-2-0-5---5---5-2-4-5---5-5---5-0-2-0---|
 
[Verse 1]
 
G|--------------------------------------------------------------------|
D|--------------------------------------------------------------------|
A|--5-5-5---------------------------5-5-5-----------------------------| x2
E|--------5---5-5-5-5-5-5-5-5-5-5-5-------5---5-5-5-5-5-5-5-5-5-5-5---|
 
G|--------------------------------------------------------------------------|
D|--------------------------------------------------------------------------|
A|--------------------------------------------------------------------------| x2
E|-/10-10-10-5---5-5-5-3h5-5-5-3h5-5-5/10-10-10-5---5-5-5-3h5-5-5-3h5-5-5---|
 
[Chorus]
 
G|--------------------------------------------------------------------|
D|--------------------------------------------------------------------|
A|--------------------------------------------------------------3-----|
E|--2---2-2-2-2-0-1-2---2-2-2-2-2-2-5---5-5-5-5-3-4-5---5-5-5-5---5---|
 
G|--------------------------------------------------------------------|
D|------------------------------------------------------------7-5-----|
A|----------------------------------------------3-------3-5-7-----7---|
E|--2---2-2-2-2-0-1-2---2-2-2-2-2-2-5---5-5-5-5---5---5---------------|
 
G|--------------------------------------------------------------------|
D|--------------------------------------------------------------------|
A|--5---5-5-5-5-5-5---------2-4-5-7-----------------------------------|
E|------------------0-2-3-5---------0-0-0-0-0-0-0-0-0-0-0-0-0-0-0-0---|
 
G|--------------------------------------------------------------------|
D|--------------------------------------------------------------------|
A|--------------------------------------------------------------------| x2
E|--5---5---5-2-4-5---5-5---5-0-2-0-5---5---5-2-4-5---5-5---5-0-2-0---|
 
[Verse 2]
 
G|--------------------------------------------------------------------|
D|--------------------------------------------------------------------|
A|--5-5-5---------------------------5-5-5-----------------------------|
E|--------5---5-5-5-5-5-5-5-5-5-5-5-------5---5-5-5-5-5-5-5-5-5-5-5---|
 
G|--------------------------------------------------------------------------|
D|--------------------------------------------------------------------------|
A|--------------------------------------------------------------------------|
E|-/10-10-10-5---5-5-5-3h5-5-5-3h5-5-5/10-10-10-5---5-5-5-3h5-5-5-3h5-5-5---|
 
[Chorus]
 
G|--------------------------------------------------------------------|
D|--------------------------------------------------------------------|
A|--------------------------------------------------------------3-----| x2
E|--2---2-2-2-2-0-1-2---2-2-2-2-2-2-5---5-5-5-5-3-4-5---5-5-5-5---5---|
 
G|--------------------------------------------------------------------|
D|--------------------------------------------------------------------|
A|--5---5-5-5-5-5-5---------2-4-5-7-----------------------------------|
E|------------------0-2-3-5---------0-0-0-0-0-0-0-0-0-0-0-0-0-0-0-0---|
 
[Bridge]
 
G|--------------------------------------------------------------------|
D|--------------------------------------------------------------------|
A|--------------------------------------------------------------------| x8
E|--5---5---5-2-4-5---5-5---5-0-2-0-5---5---5-2-4-5---5-5---5-0-2-0---|
 
[Chorus]
 
G|--------------------------------------------------------------------|
D|--------------------------------------------------------------------|
A|--9\----------------------------------------------------------3-----|
E|----------------------------------5---5-5-5-5-3-4-5---5-5-5-5---5---|
 
G|--------------------------------------------------------------------|
D|------------------------------------------------------------7-5-----|
A|----------------------------------------------3-------3-5-7-----7---|
E|--2---2-2-2-2-0-1-2---2-2-2-2-2-2-5---5-5-5-5---5---5---------------|
 
G|--------------------------------------------------------------------|
D|--------------------------------------------------------------------|
A|--5---5-5-5-5-5-5---------2-4-5-7-----------------------------------|
E|------------------0-2-3-5---------0-0-0-0-0-0-0-0-0-0-0-0-0-0-0-0---|
 
[Outro]
 
G|--------------------------------------------------------------------|
D|--------------------------------------------------------------------|
A|--------------------------------------------------------------------| x4
E|--5---5---5-2-4-5---5-5---5-0-2-0-5---5---5-2-4-5---5-5---5-0-2-0---|
 
G|--------------------------------------------------------------------|
D|--------------------------------------------------------------------|
A|--5-5-5-------------------------------------------------------------|
E|--------5~-------------------------5/14\----------------------------|
            
Submit corrections

↑ Back to top | Tablatures and chords for acoustic guitar and electric guitar, ukulele, drums are parodies/interpretations of the original songs. You may use it for private study, scholarship, research or language learning purposes only