» » »

Michael Jackson - Liberian Girl Tabs

Artists:  A B C D E F G H I J K L M N O P Q R S T U V W X Y Z # 

Liberian Girl Tabs

(ver. 1) Click to play this song!
Michael Jackson
 Rating:
4/5 (4 votes)

 Liberian Girl lessons Tabs too difficult? Try these video lessons and learn fast
 
                                                Michael Jackson
                                 Liberian girl

It's only approximate tab, but every player can make it better in depend of his guitar mastery ;)
Great wishes, Dmitry

Capo 4 fr.

intro(x2)
                 (2 time)
E------0---------0(0-0)----------2---------------------|
B------0---------1-1-1(1-1)------3-3-3-----------------|
G------0---------0-----0-0(0-0)--2-----2-2-------------|
D------0---------2---------2-2---4---------4-4---------|
A------2---------0---------------2---------------------|
E--0-0---0-0-0-----------------------------------------|


x2
E--0---0---0---2---|
B--0---0---1---3---|
G--0---0---0---2---|
D--0---0---2---4---|
A--2---2---0---2---|
E--0---0---0---2---|


Chorus:

E--0---0---0---0-----------------|
B--1---1---0---0-----------------|
G--0---0---0---0-----------4---4-|
D--2---2---0---0---4---4---4---4-|
A--3---3---2---2---4---4---2---2-|
E--0---0---0---0---2---2---------|


E--0---0---0(0-0)----------2-2-2-----------|
B--0---0---1-1-1(1-1)------3-----1-1-------|
G--0---0---0-----0-0(0-0)--2---------0-0---|
D--0---0---2---------2-2---4---------------|
A--2---2---0---------------2---------------|
E--0---0-----------------------------------|


I love you Liberian Girl...
E------0---0---0-------0----|
B--4---0---0---1---4---0----|
G--4---0---0---0---4---0----|
D--4---0---0---2---4---0----|
A--2---2---2---0---2---2----|
E------0---0---0-------0----|.

Naku penda piya - naku taka
Piya - mpenziwe)
(I love you too - I want you
Too - my love)

Liberian girl...
You came and you changed
My world
A love so brand new
Liberian girl...
You came and you changed
Me girl
A feeling so true

Chorus:

Liberian girl
You know that you came
And you changed my world,
Just like in the movies,
With two lovers in a scene
And she says...
"Do you love me"
And he says so endlessly...
"I love you, liberian girl"

Liberian girl...
More precious than
Any pearl
Your love so complete
Liberian girl...
You kiss me then,
Ooh, the world
You do this to me

Liberian girl
You know that you came
And you changed my world,
Just like in the movies,
With two lovers in a scene
And she says,

"Do you love me"
And he says so endlessly
"I love you, liberian girl"

Liberian girl
You know that you came
And you changed my world,
I wait for the day,
When you have to say
"I do,"
And I'll smile and say it too,
And forever we'll be true
I love you, liberian girl,
All the time


I love you liberian girl,
All the time

I love you liberian girl,
All the time

I love you liberian girl,
All the time

I love you
I love you baby

I want you
I love you baby

Ooh! I love you baby, I want
You baby, ooh!
            
Submit corrections


        Liberian Girl lessons Hard to play? Try these video lessons and learn fast Liberian Girl lessons
        
↑ Back to top | Tablatures and chords for acoustic guitar and electric guitar, ukulele, drums are parodies/interpretations of the original songs. You may use it for private study, scholarship, research or language learning purposes only