» » »

Michael Jackson - Heal The World Tabs

Artists:  A B C D E F G H I J K L M N O P Q R S T U V W X Y Z # 

Heal The World Tabs

(ver. 1) Click to play this song!
Michael Jackson
 Rating:
4.4/5 (14 votes)

 Heal The World lessons Tabs too difficult? Try these video lessons and learn fast
 
                e|------------------------------------------------------------------
B|----------------------------------13-13-13-13---------------------
G|-10-12-14---14-14-14-14/15-15---12-----------15-17p15-14-14/15-14-
D|------------------------------------------------------------------
A|------------------------------------------------------------------
E|------------------------------------------------------------------


e|-------10-13-12--------------------------------------------------------------
B|-10h13----------13-13-13-15-13h15----------13---10-10-10---------------------
G|----------------------------------10h12/14---------------12-12-14h15-14-12---
D|--------------------------------------------------------------------------15-
A|-----------------------------------------------------------------------------
E|-----------------------------------------------------------------------------
            
Submit corrections


        Heal The World lessons Hard to play? Try these video lessons and learn fast Heal The World lessons
        
↑ Back to top | Tablatures and chords for acoustic guitar and electric guitar, ukulele, drums are parodies/interpretations of the original songs. You may use it for private study, scholarship, research or language learning purposes only