Home » M » Michael Buble »

Michael Buble - Everything Tabs

Artists:  A B C D E F G H I J K L M N O P Q R S T U V W X Y Z # 

Everything Tabs

(ver. 2) Click to play this song!
Michael Buble
-------------------------------------------------------------------------------
                             Everything - Michael Bublé
-------------------------------------------------------------------------------

Tuning: Drop-D

e|---------------------------------------------------------------------------|
B|---------------------------------------------------------------------------|
G|--------------9/11p9-9p7---7--7-7h9-7--------77-66---------9/11p9-9p7------|
D|--0-0-0-0---7------------9----7-7---7----00--------99-7-6-------------9----|
A|----------9----------------------------------------------------------------|
D|--------------------------------------0------------------------------------|

e|---------------------------------------------------------------------------|
B|--7--10-8-7----------------------------------------------------------------|
G|--7--7--7-7--9p7-----------------------------------------------------------|
D|-----------------9---------------------------------------------------------|
A|---------------------------------------------------------------------------|
E|---------------------------------------------------------------------------|




| /  slide up
| \  slide down
| h  hammer-on
| p  pull-off
| ~  vibrato
| +  harmonic
| x  Mute note
===============================================================================
            
Submit corrections

↑ Back to top | Tablatures and chords for acoustic guitar and electric guitar, ukulele, drums are parodies/interpretations of the original songs. You may use it for private study, scholarship, research or language learning purposes only