Home » M » Mia Rose »

Mia Rose - Lawrence Tabs

Artists:  A B C D E F G H I J K L M N O P Q R S T U V W X Y Z # 

Lawrence Tabs

(ver. 1) Click to play this song!
Mia Rose
 Rating:
4.2/5 (5 votes)
                
Lawrence by (the extremely talented) Mia Rose

Capo 10th Fret

----3---------2-----|
------3------3--3---|
---0---0----2----2--| X8
--2-----2--0------0-|
-3------------------|
--------------------|

every word I write
im always thinking about you
Every song i sing
is with you're face painted in my mind

I need you to realize
How much I need you in my life
You keep me alive
And ill always fight for you

-3------3------3------2------|
-3------3------3------3------|
-0--X6--0--X6--0--X6--2--X6--|
-0------2------2------0------|
-2------2------3-------------|
-3---------------------------|

Cuz I love you
And I need you
Lawrence you are my guiding light

-3------3------3------2------|
-3------3------3------3------|
-0--X6--0--X6--0--X6--2--X1--|
-0------2------2------0------|
-2------2------3-------------|
-3---------------------------|

To whats true
thats me and you
forever my heart is in your hands....

-3------3------3------2------|
-3------3------3------3------|
-0--X6--0--X6--0--X6--2--X1--|
-0------2------2------0------|
-2------2------3-------------|
-3---------------------------|

is in your hands....

-3------3------3------2------|
-3------3------3------3------|
-0--X6--0--X6--0--X6--2--X4--|
-0------2------2------0------|
-2------2------3-------------|
-3---------------------------|

-3------2------3------2------|
-3------3------3------3------|
-0--X6--2--X6--0--X6--2--X1--|
-2------0------2------0------|
-3-------------3-------------|
-----------------------------|

Every smile i make
is so true cuz im truly happy

-3------2------3------2------|
-3------3------3------3------|
-0--X6--2--X6--0--X6--2--X1--|
-2------0------2------0------|
-3-------------3-------------|
-----------------------------|

Every day i awake
I thank god for giving me you

-3------3------3------2------|
-3------3------3------3------|
-0--X6--0--X6--0--X6--2--X6--|
-0------2------2------0------|
-2------2------3-------------|
-3---------------------------|

Cuz I love you
And I need you
Lawrence you are my guiding light

-3------3------3------2------|
-3------3------3------3------|
-0--X6--0--X6--0--X6--2--X1--|
-0------2------2------0------|
-2------2------3-------------|
-3---------------------------|

To whats true
thats me and you
forever my heart is in your hands....

-3------3------3------2------|
-3------3------3------3------|
-0--X6--0--X6--0--X6--2--X1--|
-0------2------2------0------|
-2------2------3-------------|
-3---------------------------|

Yeah....
is in your hands....

-3------3------3------2------|
-3------3------3------3------|
-0--X6--0--X6--0--X6--2--X4--|
-0------2------2------0------|
-2------2------3-------------|
-3---------------------------|

Lawrence....

-3------3------3------2------|
-3------3------3------3------|
-0--X6--0--X6--0--X6--2--X1--|
-2------2------0------0------|
-2------3------2-------------|
---------------3-------------|

well i know sometimes
Ive made mistakes

-3------3------3------2------|
-3------3------3------3------|
-0--X6--0--X6--0--X6--2--X1--|
-2------2------0------0------|
-2------3------2-------------|

Ive gone and choose the wrong way
But I need to to know
that ill always love and only need you

-3------3------3------2------|
-3------3------3------3------|
-0--X6--0--X6--0--X6--2--X1--|
-2------2------0------0------|
-2------3------2-------------|
---------------3-------------|

Yeah....
only need you....

-3------3------3------2------|
-3------3------3------3------|
-0--X6--0--X6--0--X6--2--X1--|
-2------2------0------0------|
-2------3------2-------------|
---------------3-------------|

Yeah.... you....
Lawrence....

-3------3------3------2------|
-3------3------3------3------|
-0--X6--0--X6--0--X6--2--X1--|
-2------2------0------0------|
-2------3------2-------------|
---------------3-------------|

Cuz I love you
And I need you
Lawrence you are my guiding light

-3------3------3------2------|
-3------3------3------3------|
-0--X1--0--X1--0--X1--2--X6--|
-0------2------2------0------|
-2------2------3-------------|
-3---------------------------|

To whats true baby
thats me and you
forever my heart is in your hands....

-3------3------3------2------|
-3------3------3------3------|
-0--X1--0--X1--0--X1--2--X6--|
-0------2------2------0------|
-2------2------3-------------|
-3---------------------------|

Cuz I love you
And I need you
Lawrence you are my guiding light

-3------3------3------2------|
-3------3------3------3------|
-0--X6--0--X6--0--X6--2--X6--|
-0------2------2------0------|
-2------2------3-------------|
-3---------------------------|

To whats true
thats me and you
forever my heart is in your hands....

-3------3------3------2------|
-3------3------3------3------|
-0--X6--0--X6--0--X6--2--X6--|
-0------2------2------0------|
-2------2------3-------------|
-3---------------------------|

Yeah....

-3------3------3------2------|
-3------3------3------3------|
-0--X6--0--X6--0--X6--2--X1--|
-0------2------2------0------|
-2------2------3-------------|
-3---------------------------|

my heart is in your hands...

-3------3------3------2------|
-3------3------3------3------|
-0--X6--0--X6--0--X6--2--X1--|
-0------2------2------0------|
-2------2------3-------------|
-3---------------------------|

My heart is in your hands...

--3--
--3--
--0--
--0--
--2--
--3--

Enjoy,
            
Submit corrections

↑ Back to top | Tablatures and chords for acoustic guitar and electric guitar, ukulele, drums are parodies/interpretations of the original songs. You may use it for private study, scholarship, research or language learning purposes only