» » »

Mgmt - Time To Pretend Tabs

Artists:  A B C D E F G H I J K L M N O P Q R S T U V W X Y Z # 

Time To Pretend Tabs

(ver. 2) Click to play this song!
Mgmt
 Rating:
4/5 (4 votes)

 Time To Pretend lessons Tabs too difficult? Try these video lessons and learn fast
 
                MGMT - Time To Pretend


standard tuning


Intro
e|--------------------------------------|
b|--10---10---10---10---8---7---8---10--|
g|7----7----7----7----7---7---7---7-----|   x2
d|--------------------------------------|
a|--------------------------------------|
e|--------------------------------------|


e|----------------14-14-----------------|
b|-17p15--------------------------------|
g|-------18-16-14-----------------------|   x5
d|--------------------------------------|
a|--------------------------------------|
e|--------------------------------------|

verse 1
e|--------------------------------------|
b|--------------------------------------|
g|--------------------------------------|   throughout entire verse until
d|--------------------------------------|   "forget about our brothers and
a|----------------------------12--------|   our friends".
e|-10-10-10-10-10-10-10-10-10-----------|


Chorus
e|--------------------------------------|
b|--10---10---10---10---8---7---8---10--|
g|7----7----7----7----7---7---7---7-----|
d|--------------------------------------|
a|--------------------------------------|
e|--------------------------------------|

e|----------------14-14-----------------|
b|-17p15--------------------------------|
g|-------18-16-14-----------------------|
d|--------------------------------------|
a|--------------------------------------|
e|--------------------------------------|


Bridge
e|--------------------------------------|
b|--------------------------------------|
g|--------------------------------------| until verse 2
d|--------------------------------------|   
a|----------------------------12--------|   
e|-10-10-10-10-10-10-10-10-10-----------|

Verse 2
e|--------------------------------------|
b|--------------------------------------|
g|--------------------------------------|   throughout entire verse until
d|--------------------------------------|   "that will be the end".
a|----------------------------12--------|   
e|-10-10-10-10-10-10-10-10-10-----------|


Chorus/Outro
e|--------------------------------------|
b|--10---10---10---10---8---7---8---10--|
g|7----7----7----7----7---7---7---7-----|
d|--------------------------------------|
a|--------------------------------------|
e|--------------------------------------|

e|----------------14-14-----------------|
b|-17p15--------------------------------|
g|-------18-16-14-----------------------|  x12
d|--------------------------------------|
a|--------------------------------------|
e|--------------------------------------|

e|----------------14--------------------|
b|-17p15--------------------------------|
g|-------18-16-14-----------------------|
d|--------------------------------------|
a|--------------------------------------|
e|--------------------------------------|
            
Submit corrections


        Time To Pretend lessons Hard to play? Try these video lessons and learn fast Time To Pretend lessons
        
↑ Back to top | Tablatures and chords for acoustic guitar and electric guitar, ukulele, drums are parodies/interpretations of the original songs. You may use it for private study, scholarship, research or language learning purposes only