Home » M » Mf Doom »

Mf Doom - Safed Musli Bass

Artists:  A B C D E F G H I J K L M N O P Q R S T U V W X Y Z # 

Safed Musli Bass

(ver. 1) Click to play this song!
Mf Doom
[Intro]
G|-17-17~--16--14-----------------------------------------------------|
D|-----------------17---16-14-12~-------------------------------------|
A|---------------------------------15~~-----------10-12-13~~----------|
E|-------------------------------------15-14-13-------------13-12-11--|
 
[Verse]
G|------------------------------------------|
D|------------------------------------------| x2
A|-12-14-15~~-----------10-12-13~~----------|
E|-----------15-14-13-------------13-12-11--|
 
G|------------------------------------------|
D|------------------------------------------|
A|-12-14-15~~------------------------15~~---|
E|--------------------------------15--------|
 
G|------------------------------------------|
D|------------------------------------------| x7
A|-15~~-----------10-12-13~~----------12-14-|
E|-----15-14-13-------------13-12-11--------|
 
G|------------------------------------------|
D|------------------------------------------|
A|-15~~----~~------------------------17-15~~|
E|--------------------------------15--------|
 
G|------------------------------------------|
D|------------------------------------------| x3
A|-15~~-----------10-12-13~~----------12-14-|
E|-----15-14-13-------------13-12-11--------|
 
G|------------------------------------------|
D|------------------------------------------|
A|-12-14-15~~------------------------15~~---|
E|--------------------------------15--------|
 
G|------------------------------------------|
D|------------------------------------------| x7
A|-15~~-----------10-12-13~~----------12-14-|
E|-----15-14-13-------------13-12-11--------|
 
G|------------------------------------------|
D|------------------------------------------|
A|-15~~-----------10-12-13~~----------12----|
E|-----15-14-13-------------13-12-11--------|
            
Submit corrections

↑ Back to top | Tablatures and chords for acoustic guitar and electric guitar, ukulele, drums are parodies/interpretations of the original songs. You may use it for private study, scholarship, research or language learning purposes only