Home » M » Mew »

Mew - Witness Tabs

Artists:  A B C D E F G H I J K L M N O P Q R S T U V W X Y Z # 

Witness Tabs

(ver. 1) Click to play this song!
Mew
 Rating:
2.1/5 (25 votes)
                Riff A, Gtr. 1
4/4
e|------------------------------------------12-12--12--|
B|------------------------------------------9--9---9---|
G|-2---/4-------------------4h6---6/8---9---9--9---9---|
D|-2------6----/4---4h6-2------------------------------|
A|-0--------2\------------------4----------------------|
E|-----------------------------------------------------|

e|-----------------------------------------------------|
B|-----4-4-4---5-5-5-----------------------------------|
G|-2---4-4-4---4-4-4---------------4h6-4h6-/8-6\4-4----|
D|-2---4-4-4---4-4-4-------4---2-----------------------|
A|-0---2-2-2---2-2-2-----------------------------------|
E|---------------------2h4-----------------------------|

e|------------------------------------------12-12--12--|
B|------------------------------------------9--9---9---|
G|-2---/4-------------------4h6---6/8---9---9--9---9---|
D|-2------6----/4---4h6-2------------------------------|
A|-0--------2\------------------4----------------------|
E|-----------------------------------------------------|

e|-----------------------------------------------------|
B|-----4-4-4---5-5-5-------------------/2-0------------|
G|-2---4-4-4---4-4-4------------------------2-1--------|
D|-2---4-4-4---4-4-4-------4---2-----------------------|
A|-0---2-2-2---2-2-2---------------2h4-----------------|
E|---------------------2h4-----------------------------|            
Submit corrections

↑ Back to top | Tablatures and chords for acoustic guitar and electric guitar, ukulele, drums are parodies/interpretations of the original songs. You may use it for private study, scholarship, research or language learning purposes only