Home » M » Metro Station »

Metro Station - Tell Me What To Do Tabs

Artists:  A B C D E F G H I J K L M N O P Q R S T U V W X Y Z # 

Tell Me What To Do Tabs

(ver. 1) Click to play this song!
Metro Station
-------------------------------------------------------------------------------
-------------------------------------------------------------------------------

Tuning: Standard

Intro
Right Ear Phone
e|-----8-----8-----8-----8---8---------------------------------|
B|-6-6---6-6---6-6---6-6---6-----------------------------------|
G|-------------------------------------------------------------|
D|-------------------------------------------------------------|
A|-------------------------------------------------------------|
E|-------------------------------------------------------------|

Left Ear Phone
e|-----------------------------------------------|
B|-----------------------------------------------|
G|-----------------------------------------------|
D|-101010101010-7777777--------------------------|
A|-8-8-8-8-8-8--5555555-8888888-101010101010-----|
E|----------------------6666666-8-8-8-8-8-8------|

Verse
The bass line plays but you can hear this part sometimes
Right Ear Phone
e|---8---8---6---6---6-5---------------------------------------|
B|-6---6---6---6---6-------------------------------------------|
G|-------------------------------------------------------------|
D|-------------------------------------------------------------|
A|-------------------------------------------------------------|
E|-------------------------------------------------------------|

Left Ear Phone
e|-------------------------------------------------------------|
B|-------------------------------------------------------------|
G|-------------------------------------------------------------|
D|---------------------------(None)----------------------------|
A|-------------------------------------------------------------|
E|-------------------------------------------------------------|

Chorus
Right Ear Phone
e|-----8-----8-----8-----8---8---------------------------------|
B|-6-6---6-6---6-6---6-6---6-----------------------------------|
G|-------------------------------------------------------------|
D|-------------------------------------------------------------|
A|-------------------------------------------------------------|
E|-------------------------------------------------------------|

Left Ear Phone
e|-----------------------------------------------|
B|-----------------------------------------------|
G|-----------------------------------------------|
D|-101010101010-7777777--------------------------|
A|-8-8-8-8-8-8--5555555-8888888-101010101010-----|
E|----------------------6666666-8-8-8-8-8-8------|

Bridge Part
Right Ear Phone
e|-------------------------------------------------------------|
B|-------------------------------------------------------------|
G|-------------------------------------------------------------|
D|-----15-15-----15-15-----------------------------------------|
A|-8-8-------8-8-----------------------------------------------|
E|-------------------------------------------------------------|

Left Ear Phone
e|-------------------------------------------------------------|
B|-------------------------------------------------------------|
G|-------------------------------------------------------------|
D|-10-10-10-10-10---10---10-----10---10---10---10--------------|
A|-8--8--8--8--8--8----8----8-8----8----8----8-----------------|
E|-------------------------------------------------------------|

Order
Intro
Verse
Chorus
Verse
Chorus 
Bridge
Chorus

| /  slide up
| \  slide down
| h  hammer-on
| p  pull-off
| ~  vibrato
| +  harmonic
| x  Mute note
===============================================================================
            
Submit corrections

↑ Back to top | Tablatures and chords for acoustic guitar and electric guitar, ukulele, drums are parodies/interpretations of the original songs. You may use it for private study, scholarship, research or language learning purposes only