Home » M » Metro Station »

Metro Station - Shake It Tabs

Artists:  A B C D E F G H I J K L M N O P Q R S T U V W X Y Z # 

Shake It Tabs

(ver. 3) Click to play this song!
Metro Station
This is my first full tab so it might not be 100% correct.
I've tabbed out the bass
(I know they aren't played as chords it just sounds prettier) and synth parts as well so 
can play the whole song on guitar.
Enjoy.

Intro (Synth)
e|--7-7-7-7-4-4-4-4----------4-4-4-4-7-7-7-7-7-7-7-7-4-4-4-4--------------|
B|-5-5-5-5-2-2-2-2----(x4)---2-2-2-2-5-5-5-5-5-5-5-5-2-2-2-2--------------|
G|------------------------------------------------------------------------|
D|------------------------------------------------------------------------|
A|------------------------------------------------------------------------|
E|------------------------------------------------------------------------|

Intro (Guitar)
e|------------------------------------------------------------------------|
B|------------------------------------------------------------------------|
G|------------------------------------------------------------------------|
D|-9-9-11-14-14-7-7-7-14-14-----------------------------------------------|
A|-9-9-11-14-14-7-7-7-14-14-(x2)------------------------------------------|
E|-7-7--9-12-12-5-5-5-12-12-----------------------------------------------|

Verse (Bass)
e|------------------------------------------------------------------------|
B|------------------------------------------------------------------------|
G|------------------------------------------------------------------------|
D|-9-9-11-11-14-14-7-7-7-7------------------------------------------------|
A|-9-9-11-11-14-14-7-7-7-7-(x4)-------------------------------------------|
E|-7-7--9--9-12-12-5-5-5-5------------------------------------------------|

Verse (Synth)
e|------------------------------------------------------------------------|
B|----------7-9-5---------------------------------------------------------|
G|------------------------------------------------------------------------|
D|------------------------------------------------------------------------|
A|-----------------(x4)---------------------------------------------------|
E|-7-9-12-5---------------------------------------------------------------|

Chorus (Guitar)
e|------------------------------------------------------------------------|
B|-------------------------------------------------------------------(x2)-|
G|------------------------------------------------------------------------|
D|-9------11------14------7-------14-------------9-9-11-14-14-7-7-7-14-14-|
A|-9-[x8]-11-[x4]-14-[x4]-7-[x12]-14-[x4]-(x2)---9-9-11-14-14-7-7-7-14-14-|
E|-7-------9------12------5-------12-------------7-7--9-12-12-5-5-5-12-12-|

Chorus (Synth)
e|--7-7-7-7-4-4-4-4-------------------------------------------------------|
B|-5-5-5-5-2-2-2-2--(x4)--------------------------------------------------|
G|------------------------------------------------------------------------|
D|------------------------------------------------------------------------|
A|------------------------------------------------------------------------|
E|------------------------------------------------------------------------|

Verse

Chorus

Bridge (Synth)
e|-------------------------------------------------------------------------|
B|-10-9-7----(x2)------5-----9-10-9-7----(x2)------------------------------|
G|--------9--------6-4---6-8----------9------------------------------------|
D|-------------------------------------------------------------------------|
A|-------------------------------------------------------------------------|
E|-------------------------------------------------------------------------|

Bridge (Bass)
e|-------------------------------------------------------------------------|
B|-------------------------------------------------------------------------|
G|-------------------------------------------------------------------------|
D|-11------14------7------9------------------------------------------------|
A|-11-[x4]-14-[x4]-7-[x4]-9-[x4]-------------------------------------------|
E|--9------12------5------7------------------------------------------------|

Chorus

Outro (Synth)
e|--7-7-7-7-4-4-4-4---------------------------------------------------------|
B|-5-5-5-5-2-2-2-2--(x4)----------------------------------------------------|
G|--------------------------------------------------------------------------|
D|--------------------------------------------------------------------------|
A|--------------------------------------------------------------------------|
E|--------------------------------------------------------------------------|

Outro (Bass)
e|--------------------------------------------------------------------------|
B|--------------------------------------------------------------------------|
G|--------------------------------------------------------------------------|
D|-9-9-11-11-14-14-7-7-7-7--------------------------------------------------|
A|-9-9-11-11-14-14-7-7-7-7-(x4)---------------------------------------------|
E|-7-7--9--9-12-12-5-5-5-5--------------------------------------------------|
            
Submit corrections

↑ Back to top | Tablatures and chords for acoustic guitar and electric guitar, ukulele, drums are parodies/interpretations of the original songs. You may use it for private study, scholarship, research or language learning purposes only