Home » M » Metro Station »

Metro Station - Now That We're Done Tabs

Artists:  A B C D E F G H I J K L M N O P Q R S T U V W X Y Z # 

Now That We're Done Tabs

(ver. 1) Click to play this song!
Metro Station
Band: Metro Station


Here's anouther song from the Band Metro Station.  Metro Station is Mason Musso, Trace 
Blake Healy, and Anthony Improgo.  Most of this song is played on the Keyboard, so I'm 
the Keyboard to guitar.

Standard Tuning (EADGBe)

Intro
e---------------------------| x3
B------12-10-----------9----|
G--9-9-------11--7/8-9---9--|
D---------------------------|
A---------------------------|
E---------------------------|

e---------------------------|
B------12-10-----------9--9-|
G--9-9-------11--7/8-9--11--|
D---------------------------|
A---------------------------|
E---------------------------|

Bridge: same as intro

Verse
e---------------------------| x4
B------12-10-----------9----|
G--9-9-------11--7/8-9---9--|
D---------------------------|
A---------------------------|
E---------------------------|

Chorus
e-----------------------------------------------------------|
B----12-9---12-9---12----12-9---12-9---12--12-9---12-9---12-|
G--9------9------9----11-----11-----11----9------9------9---|
D-----------------------------------------------------------|
A-----------------------------------------------------------|
E-----------------------------------------------------------|

e---------------------|
B----12-9---9-10-9----|
G--9------9--------9--|
D---------------------|
A---------------------|
E---------------------| Repeat Chorus

Post Chorus
e--------------------------| x3
B--9-12-9-12-9--9-12-9-----|
G----------------------11--|
D--------------------------|
A--------------------------|
E--------------------------|

Repeat Verse

Repeat Chorus

2nd Post Chorus
e----14---12---11---12--| x3
B--12---12---12---12----|
G-----------------------|
D-----------------------|
A-----------------------|
E-----------------------|

e--12-11----12-11----12-|
B--------12-------12----|
G-----------------------|
D-----------------------|
A-----------------------|
E-----------------------|

Repeat 2nd Post Chorus 3 more times..

Repeat Chorus

Outro: Repeat Intro

Two songs down.. alot more to go :)
            
Submit corrections

↑ Back to top | Tablatures and chords for acoustic guitar and electric guitar, ukulele, drums are parodies/interpretations of the original songs. You may use it for private study, scholarship, research or language learning purposes only