Home » M » Metro Station »

Metro Station - Kelsey Bass

Artists:  A B C D E F G H I J K L M N O P Q R S T U V W X Y Z # 

Kelsey Bass

(ver. 1) Click to play this song!
Metro Station
This song is very easy, so I figured I'd just tab it.

"So take one word you said..."
(No bass)

Intro pt. 2
(when music all comes in)
G--------------|
D-3~~------5~~-|
A----3~~-------|
E-------5~~----|

"So don't let anyone scare you.."
G--------------|
D--------------|
A----3~~-------|
E-1~~---5~~3~~-|

"You better watch it..."
G--------------|
D--------------|
A----3~~-------|
E-1~~---5~~3~~-|

"I know, I know..."
G--------------|
D--------------|
A----3~~-------|
E-1~~---5~~3~~-|

Chorus
"And I'll swim the ocean for you..."
G-------------------------------------|
D-------------------------------------|
A-8888888-33333333--------------------|
E-----------------555555555-333333333-|

Intro
G--------------|
D-3~~------5~~-|
A----3~~-------|
E-------5~~----|

"Now it's gunna burn harder..."
G--------------|
D--------------|
A----3~~-------|
E-1~~---5~~3~~-|

"So let me say that I love you.."
G--------------|
D--------------|
A----3~~-------|
E-1~~---5~~3~~-|

"I want you so bad.."
G--------------|
D--------------|
A----3~~-------|
E-1~~---5~~3~~-|

"I want you so much..."
G--------------|
D--------------|
A----3~~-------|
E-1~~---5~~3~~-|
Chorus
"And I'll swim the ocean for you..."
G-------------------------------------|
D-------------------------------------|
A-8888888-33333333--------------------|
E-----------------555555555-333333333-|

Bridge
(NO bass just drums)

Intro/Outro
Chorus
"And I'll swim the ocean for you..."
G-------------------------------------|
D-------------------------------------|
A-8888888-33333333--------------------|
E-----------------555555555-333333333-|

End on E1 or in easier terms, F. It's an easy song to play. Metro Station FTW!
            
Submit corrections

↑ Back to top | Tablatures and chords for acoustic guitar and electric guitar, ukulele, drums are parodies/interpretations of the original songs. You may use it for private study, scholarship, research or language learning purposes only