» » »

Metronomy - The Bay Bass

Artists:  A B C D E F G H I J K L M N O P Q R S T U V W X Y Z # 

The Bay Bass

(ver. 1) Click to play this song!
Metronomy
 Rating:
4.6/5 (10 votes)


 The Bay lessons Tabs too difficult? Try these video lessons and learn fast
 
                
Intro

G|---------------------------------|
D|---------------------------------|
A|-4-4-4-4-2-2-2-2-5-5---7-9-9-9-9-|
E|---------------------5-----------|

G|-----------------------------------|
D|-----------------------------------|
A|-4-4-4-4-2-2-2-2-5-5---7-9-9-9-7-9-|
E|---------------------5-------------|

G|--6-6-6-6-4-4-4-4-7-7---9-11-11-11-11-|
D|----------------------7---------------|
A|-4-4-4-4-2-2-2-2-5-5---7-9--9--9--9---|
E|---------------------5----------------| (x2)

Verse 1

G|---------------------------------|
D|---------------------------------|
A|-4-4-4-4-2-2-2-2-5-5---7-9-9-9-9-|
E|---------------------5-----------|

G|-----------------------------------|
D|-----------------------------------|
A|-4-4-4-4-2-2-2-2-5-5---7-9-9-9-7-9-|
E|---------------------5-------------|

G|--6-6-6-6-4-4-4-4-7-7---9-11-11-11-11-|
D|----------------------7---------------|
A|-4-4-4-4-2-2-2-2-5-5---7-9--9--9--9---|
E|---------------------5----------------| (x4)


Chorus

G|--7-7-----7-4-4----4-6-6----6-|
D|-------4h7------2h4------4h6--|
A|-5-5-5-----2-2-2----4-4-4-----|
E|------------------------------| (x2)

G|--7-7----7-4-4----4-11-11-----11-9-9----9-|
D|------4h7------2h4--------9h11-------7h9--|
A|-5-5-5----2-2-2----9--9--9------7-7-7-----|
E|------------------------------------------| (x2)


Verse 2

G|---------------------------------|
D|---------------------------------|
A|-4-4-4-4-2-2-2-2-5-5---7-9-9-9-9-|
E|---------------------5-----------| 

G|-----------------------------------|
D|-----------------------------------|
A|-4-4-4-4-2-2-2-2-5-5---7-9-9-9-7-9-|
E|---------------------5-------------| x2

G|--6-6-6-6-4-4-4-4-7-7---9-11-11-11-11-|
D|----------------------7---------------|
A|-4-4-4-4-2-2-2-2-5-5---7-9--9--9--9---|
E|---------------------5----------------| (x4)


Chorus

G|--7-7-----7-4-4----4-6-6----6-|
D|-------4h7------2h4------4h6--|
A|-5-5-5-----2-2-2----4-4-4-----|
E|------------------------------| (x2)

G|--7-7----7-4-4----4-11-11-----11-9-9----9-|
D|------4h7------2h4--------9h11-------7h9--|
A|-5-5-5----2-2-2----9--9--9------7-7-7-----|
E|------------------------------------------| (x2)


Solo and Outro (play twice)

G|--7-7-----7-4-4----4-6-6----6-|
D|-------4h7------2h4------4h6--|
A|-5-5-5-----2-2-2----4-4-4-----|
E|------------------------------| (x2)

G|--7-7----7-4-4----4-11-11-----11-9-9----9-|
D|------4h7------2h4--------9h11-------7h9--|
A|-5-5-5----2-2-2----9--9--9------7-7-7-----|
E|------------------------------------------| (x2)
            
Submit corrections



        The Bay lessons Hard to play? Try these video lessons and learn fast The Bay lessons
        
↑ Back to top | Tablatures and chords for acoustic guitar and electric guitar, ukulele, drums are parodies/interpretations of the original songs. You may use it for private study, scholarship, research or language learning purposes only