Home » M » Metronomy »

Metronomy - Corinne Bass

Artists:  A B C D E F G H I J K L M N O P Q R S T U V W X Y Z # 

Corinne Bass

(ver. 1) Click to play this song!
Metronomy


There are basically two alternating patterns in this song.

Pattern 1:

G|-----------------|-----------------|-----------------|
D|-----------------|---------1-1-1-1-|---------0-0-0-0-|
A|-2-2-2-2-2-2-2-2-|-4-4-4-4---------|-----------------|
E|-----------------|-----------------|-1-1-1-1---------|


G|-----------------|-----------------|-----------------|
D|-----------------|-----------------|-----------------|
A|-2-2-2-2-2-2-2-2-|-4-4-4-4---------|-1-1-1-1-1-1-1-1-|
E|-----------------|---------4-4-4-4-|-----------------|


G|-----------------|-----------------|-----------------|
D|-----------------|---------1-1-1-1-|-3-3-3-3-0-0-0-0-|
A|-2-2-2-2-2-2-2-2-|-4-4-4-4---------|-----------------|
E|-----------------|-----------------|-----------------|


G|-----------------|-----------------|-----------------|
D|-----------------|-----------------|-----------------|
A|-2-2-2-2-2-2-2-2-|-4-4-4-4---------|-1-1-1-1-1-1-1-1-|
E|-----------------|---------4-4-4-4-|-----------------|


Pattern 2:

G|-----------------|-----------------|---------|-----------------|
D|-----------------|---------1-1-1-1-|-1-1-1-1-|---------0-0-0-0-|
A|-2-2-2-2-2-2-2-2-|-4-4-4-4---------|---------|-----------------|
E|-----------------|-----------------|---------|-1-1-1-1---------|


G|-----------------------------------|---------|-----------------|
D|-----------------|-----------------|---------|-----------------|
A|-2-2-2-2-2-2-2-2-|-4-4-4-4---------|---------|-1-1-1-1-1-1-1-1-|
E|-----------------|---------4-4-4-4-|-4-4-4-4-|-----------------|


G|-----------------|-----------------|---------|-----------------|
D|-----------------|---------1-1-1-1-|-1-1-1-1-|-3-3-3-3-0-0-0-0-|
A|-2-2-2-2-2-2-2-2-|-4-4-4-4---------|---------|-----------------|
E|-----------------|-----------------|---------|-----------------|


G|-----------------------------------|---------|-----------------|
D|-----------------|-----------------|---------|-----------------|
A|-2-2-2-2-2-2-2-2-|-4-4-4-4---------|---------|-1-1-1-1-1-1-1-1-|
E|-----------------|---------4-4-4-4-|-4-4-4-4-|-----------------|


Notes:

*   There is no bass during the vocal part at ~1:08.
    The bass comes back in at ~1:32, starting with pattern 2.

*   There is no bass between ~1:57 and ~2:03. It starts again with pattern 2.

*   On the record version it sounds like they are partially using a synthie bass. 
    However it still plays the same notes.
            
Submit corrections

↑ Back to top | Tablatures and chords for acoustic guitar and electric guitar, ukulele, drums are parodies/interpretations of the original songs. You may use it for private study, scholarship, research or language learning purposes only