Home » M » Meters »

Meters - Tippi Toes Tabs

Artists:  A B C D E F G H I J K L M N O P Q R S T U V W X Y Z # 

Tippi Toes Tabs

(ver. 1) Click to play this song!
Meters
 Rating:
4/5 (4 votes)
                Main Riff (intense palm mute! Also, putting on your high pickup will help)
e|---------------------------------------------------------------------------|
B|---5-5-6-7-7-7-7-7-7--8-8--------------------------------------------------|
G|---5-5-6-7-7-7-7-7-7--7-7--------------------------------------------------|   x A lot
D|---------------------------------------------------------------------------|
A|---------------------------------------------------------------------------|
E|---------------------------------------------------------------------------|

Remember, you don't have to play the bass note all the time
 cause the bass has you covered!
Hits   D           A       D    G    D    A   
e|-----5-----------5-------5----3----5----5----------------------------------------|
B|-----7-----------5-------7----3----7----5----------------------------------------|
G|-----7-----------6-------7----4----7----6----------------------------------------|
D|-----7-----------7-------7----5----7----7----------------------------------------|
A|----(5)----------7------(5)---5----5----7----------------------------------------|
E|----------------(5)----------(3)-------(5)---------------------------------------|
            
Submit corrections

↑ Back to top | Tablatures and chords for acoustic guitar and electric guitar, ukulele, drums are parodies/interpretations of the original songs. You may use it for private study, scholarship, research or language learning purposes only