Home » M » Meters »

Meters - Sissy Strut Tabs

Artists:  A B C D E F G H I J K L M N O P Q R S T U V W X Y Z # 

Sissy Strut Tabs

(ver. 1) Click to play this song!
Meters
HIIIIIIIIIIIIIIIIIIIII YA!
E------------------|-------------------------'|-----------------------------
B------------------|-------------------------|------------------------------
G------------------|--------------9--9--7--7-|------------------------------
D---9--7-----------|--------------9--9--7--7-|----10-8-(play over and over)-
A---------9--7-/-3-|---0h3--0h3--------------|------------------------------
E------------------|-------------------------'|-----------------------------

E---------------------------------------------------------------------------
B---------------------------------------------------------------------------
G---------------------------------------------------------------------------
D---10-8-(AGAIN until)--10-8------------------------------------------------
A------------------------------3--------------------------------------------
E---------------------------------------------------------------------------

thank you, any corrections, just about anything, e-mail me, i love nawlin's and all the bands there, peace
            
Submit corrections

↑ Back to top | Tablatures and chords for acoustic guitar and electric guitar, ukulele, drums are parodies/interpretations of the original songs. You may use it for private study, scholarship, research or language learning purposes only