Home » M » Meters »

Meters - Pungee Tabs

Artists:  A B C D E F G H I J K L M N O P Q R S T U V W X Y Z # 

Pungee Tabs

(ver. 1) Click to play this song!
Meters
 Rating:
4/5 (4 votes)
                Intro                               C6     C7
e|---------------------------------------------------------------------------|
B|---------------------------------------------------------------------------|
G|---------------------------------2--2----3---------------------------------|
D|---------------------1-----------2--2----2---------------------------------|
A|----1b---1bp0----------3---------3--3----3---------------------------------|
E|----------------3-1--------------------------------------------------------|

First Part
e|---------------------------------------------------------------------------|
B|---------------------------------------------------------------------------|
G|---------------------------------------------------------------------------|  x2
D|--5--8p7-5-7---------------------------------------------------------------|
A|-------------5/6--5--3-----------------------------------------------------|
E|---------------------------------------------------------------------------|

Second Part                             Back to First Part
e|---------------------------------------------------------------------------|
B|---------------------------------------------------------------------------|
G|--5---8--8p7-5-7-----------------------------------------------------------|
D|-----------------6-5-3------------------5---8p7-5-7------------------------|
A|------------------------6-5-3-----------------------5/6-5-3----------------|
E|------------------------------4-3-1----------------------------------------|

Bridge
e|---------------------------------------------------------------------------|
B|---3----/8--6--5------4----/8--6--5----------------------------------------|
G|---3------------------3----------------------------------------------------|  
D|---3----/8--7--5------3----/8--7--5----------------------------------------|
A|---------------------------------------------------------------------------|
E|---------------------------------------------------------------------------|

Back to First Part
First Part                          additional lick @ 0:54 
e|---------------------------------------------------------------------------|
B|-----------------------------------------3--5------------------------------|
G|-----------------------------------------3--5------------------------------|  x2
D|--5--8p7-5-7---------------------------------------------------------------|
A|-------------5/6--5--3--------------1h3------------------------------------|
E|---------------------------------------------------------------------------|

Second Part                             Back to First Part
e|---------------------------------------------------------------------------|
B|---------------------------------------------------------------------------|
G|--5---8--8p7-5-7-----------------------------------------------------------|
D|-----------------6-5-3------------------5---8p7-5-7------------------------|
A|------------------------6-5-3-----------------------5/6-5-3----------------|
E|------------------------------4-3-1----------------------------------------|


   Breakdown                                          Last Time
e|---------------------------------------------------------------------------|
B|----------------------6--4-------------------------------------------------|
G|----------------------5--3-------------------------------------------------|  
D|-----3----3----3-----------------------------------------------------------|  x4
A|---3----3----3---3------------------------------------3--------------------|
E|--------------------------------------------------------1h3----------------|
            
Submit corrections

↑ Back to top | Tablatures and chords for acoustic guitar and electric guitar, ukulele, drums are parodies/interpretations of the original songs. You may use it for private study, scholarship, research or language learning purposes only