» » »

Meters - Look-Ka Py Py Tabs

Artists:  A B C D E F G H I J K L M N O P Q R S T U V W X Y Z # 

Look-Ka Py Py Tabs

(ver. 1) Click to play this song!
Meters
 Rating:
4/5 (4 votes)

 Look-Ka Py Py lessons Tabs too difficult? Try these video lessons and learn fast
 
                Bow chick bow ow!
Uh chick uh - uh chick uh ah!

Main Riff                 (really palm mute)
e|-------------------------3-3-3--------------------------3-3-3--------------|
B|---------------3---------3-3-3--------------------------3-3-3--------------|
G|---------------3h4-------4-4-4--------------------------4-4-4--------------| x4
D|-------3----5-------5----------------3-----5--3----------------------------|
A|-----5---5------------------------5-----5-------5--------------------------|
E|---------------------------------------------------2/3---------------------|

Chorus/Bridge
                       pretty fast
e|---------------------------------------------------------------------------|
B|-------------------5/6-----------------------------------------------------|
G|-------------------6/7-----------------------------------------------------|  x2
D|--3----------3----------------------3----------3---------------------------|
A|----6--3--6---------------6-6-6-------6--3-6-------------------------------|
E|--------------------------------------------------1------------------------|

Vamp for Organ Solo                    Work off this, create your own licks!
e|--3--3---3---3------------------------------------------------=------------|
B|--3--3---3---3-----/8--\6----6--6------------------------------------------|
G|--4--4---4---4-----/9--\7--7--7--------------------------------------------|
D|---------------------------------------------------------------------------|
A|---------------------------------------------------------------------------|
E|---------------------------------------------------------------------------|            
Submit corrections


        Look-Ka Py Py lessons Hard to play? Try these video lessons and learn fast Look-Ka Py Py lessons
        
↑ Back to top | Tablatures and chords for acoustic guitar and electric guitar, ukulele, drums are parodies/interpretations of the original songs. You may use it for private study, scholarship, research or language learning purposes only