Home » M » Meters »

Meters - Live Wire Tabs

Artists:  A B C D E F G H I J K L M N O P Q R S T U V W X Y Z # 

Live Wire Tabs

(ver. 1) Click to play this song!
Meters
Intro 
e|----------------------------------------------------------------------------|
B|----------------------------------------------------------------------------|
G|-------------1--------------------------------------------------------------|
D|--------1-----------1-----1----1--1-------1h3-------------------------------|
A|---1h3----1h3---1h3---1h3---1h3----3p1-1h3----------------------------------|
E|----------------------------------------------1-----------------------------|

1st Riff 
e|------------------------------------|
B|------------------------------------|
G|------------------------------------|
D|------3------3----------------------| x4 
A|--------1h3-----3-------------------|
E|------------------1-----------------|


2nd Riff                      1st Riff (Again)
e|-------------------------------------------------------------|
B|-------------------------------------------------------------|
G|-----------8-------------------------------------------------|
D|------8-10---8------------------3-------3------=-------------|
A|---6------------6-------------------1h3-----3----------------|
E|-----------------------------------------------1-------------|

for the V and IV in the Blues they simply Play
       (C)   (Bb)
e|-------------------------------------------------------------|
B|-------------------------------------------------------------|
G|-------------------------------------------------------------|
D|------10----8-----3------3-----------------------------------|
A|---------------------1h3----3--------------------------------|
E|------8-----6------------------1-----------------------------|


Solo to Come.............
e|---------------------------------------------------------------------------|
B|---------------------------------------------------------------------------|
G|---------------------------------------------------------------------------|
D|---------------------------------------------------------------------------|
A|---------------------------------------------------------------------------|
E|---------------------------------------------------------------------------|
            
Submit corrections

↑ Back to top | Tablatures and chords for acoustic guitar and electric guitar, ukulele, drums are parodies/interpretations of the original songs. You may use it for private study, scholarship, research or language learning purposes only