Home » M » Meters »

Meters - Just Kissed My Baby Tabs

Artists:  A B C D E F G H I J K L M N O P Q R S T U V W X Y Z # 

Just Kissed My Baby Tabs

(ver. 1) Click to play this song!
Meters
 Rating:
4/5 (4 votes)
                Tuning: Standard

Main Riff (get that wah-wah going!)
e|---3-3--6--3-3----3-6--3-3---------------------------6---------------------|
B|---3-3--6--3-3----3-6--3-3---0--0--0---0-------------6---------------------|
G|-------------------------------2--3--4----5p0h5p0h-5-----------------------|  
D|---------------------------------------------------------------------------|
A|---------------------------------------------------------------------------|
E|-------------------------------0--1--2----3--------------------------------|

Transition
e|---3-3--6--3-3----3-6--3-3-------------------------------------------------|
B|---3-3--6--3-3----3-6--3-3---0--0--0---0-----------------------------------|
G|-------------------------------4--5--6---7---------------------------------|  
D|---------------------------------------------------------------------------|
A|---------------------------------------------------------------------------|
E|---------------------------------------------------------------------------|

Bridge Riff 
e|--3-4-5--------------------------------------------------------------------|
B|-----------3---3-5---------------------------------------------------------|
G|--------2----5----5-2--------(or an octave lower)--------------------------|
D|-----------------------------------------------------5-6-7---------2-------|
A|-------------------------------------------------------------5-3-5---3-----|
E|-----------------------------------------------------------5-----------5---|
            
Submit corrections

↑ Back to top | Tablatures and chords for acoustic guitar and electric guitar, ukulele, drums are parodies/interpretations of the original songs. You may use it for private study, scholarship, research or language learning purposes only