Home » M » Meters »

Meters - Cabbage Alley Tabs

Artists:  A B C D E F G H I J K L M N O P Q R S T U V W X Y Z # 

Cabbage Alley Tabs

(ver. 1) Click to play this song!
Meters
 Rating:
4/5 (4 votes)
                12-bar Blues in F

Wah wah start on F              These changes are fast

 F7.............Bb7......      A7    Ab   G     Gb     F7
e|---------------------------------------------------------------------------|
B|----6--6--6----6------------5----4----3-----2--------1---------------------|
G|----8--8--8----8------------7----6----5-----4--------3---------------------|
D|----7--7--7----6------------5----4----3-----2--------1---------------------|
A|----8--8--8----8------------7----6----5-----4--------3---------------------|
E|---------------6------------5----4----3-----2--------1---------------------|

   C7............Eb7.................F7   C7
e|---------------------------------------------------------------------------|
B|--8------------11------------------6-----8---8---8---8---------------------|
G|--10-----------13------------------8-----10--10-10-10----------------------|
D|--8------------11------------------7-----8---8---8--8----------------------|
A|--10-----------13------------------8-----10--10-10--10---------------------|
E|--8------------11------------------------8---8---8--8----------------------|
            
Submit corrections

↑ Back to top | Tablatures and chords for acoustic guitar and electric guitar, ukulele, drums are parodies/interpretations of the original songs. You may use it for private study, scholarship, research or language learning purposes only