» » »

Metallica - Wasting My Hate Tabs

Artists:  A B C D E F G H I J K L M N O P Q R S T U V W X Y Z # 

Wasting My Hate Tabs

(ver. 3) Click to play this song!
Metallica
 Rating:
4/5 (4 votes)
                TUNING: 1/2 a step down
eb-------------------------------------------|
Bb-------------------------------------------|
Gb-------------------------------------------|
Db-------------------------------------------|
Ab---------5-7-7-7-5---5-5-----5-------------|
Eb-0-0-5-7-----------7-----5-7---5-5p0-3-5-7-|

|-------------------------------------------|
|-------------------------------------------|
|-------------------------------------------|
|-------------------------------------------|
|---------5-7-7-7-5---5-5-----5-------------|
|-0-0-5-7-----------7-----5-7---5-5p0-5-3-0-|

Thats just the beginning of the song. (the clean part) More of the song is coming soon...
            
Submit corrections

↑ Back to top | Tablatures and chords for acoustic guitar and electric guitar, ukulele, drums are parodies/interpretations of the original songs. You may use it for private study, scholarship, research or language learning purposes only