» » »

Metallica - Ronnie Tabs

Artists:  A B C D E F G H I J K L M N O P Q R S T U V W X Y Z # 

Ronnie Tabs

(ver. 1) Click to play this song!
Metallica
 Rating:
4/5 (4 votes)
                I think that this is it but im not 100% sure.
I only know the cool intro so far but ill get back with the verse.

e-----------------------------           
B-----------------------------          
G----------------------5~-----
D------5--7-----5--7----------
A---0--------0--------0-------
E-----------------------------

e-----------------------------
B-----------------------------
G---------------------5h7--5--
D------5--7----5--7-----------
A---0--------0------0---------
E-----------------------------

Each time you play the open A string mute it just before you play the 5 on the D string. The rthyme is quite hard to get so if it sounds wrong when you play it just listen to the song and try it again.

Hope you like it.
Morningstoner
            
Submit corrections

↑ Back to top | Tablatures and chords for acoustic guitar and electric guitar, ukulele, drums are parodies/interpretations of the original songs. You may use it for private study, scholarship, research or language learning purposes only