» » »

Metallica - Escape Tabs

Artists:  A B C D E F G H I J K L M N O P Q R S T U V W X Y Z # 

Escape Tabs

(ver. 5) Click to play this song!
Metallica
 Rating:
4.4/5 (7 votes)


 Escape lessons Tabs too difficult? Try these video lessons and learn fast
 
                [Intro]
    James
e| | |---------------------------|-------------------------------||
B| | *---------------------------|-------------------------------*|
G|4|3|---------------------------|-------------------------------||
D|/|x|--7-----------------7--5---|(5)----------7--5h7h5----------||
A|4| *--0--0--0--0--0--0---------|----------------------8--7-----*|
E| | |---------------------------|-------------------------------||
     |     PM..........|     LR.....|
     |
     |Kirk
e| | |---------------------------|-------------------------------||
B| | *---------------------------|-------------------------------*|
G|4|3|--------------------5--4---|(4)----------5--4h5h4----------||
D|/|x|--7------------------------|----------------------7--5-----||
A|4| *--0--0--0--0--0--0---------|-------------------------------*|
E| | |---------------------------|-------------------------------||
           PM..........|     LR.....|

  James
e|---------------------------|-----------------------------|
B|---------------------------|-----------------------------|
G|---------------------------|-----------------------------|
D|--7-----------------7--5---|(5)----------7--7h5----------|
A|--0--0--0--0--0--0---------|--------------------8--8-----|
E|---------------------------|-----------------------------|
 |     PM..........|
 |
 |Kirk
e|---------------------------|-----------------------------|
B|---------------------------|-----------------------------|
G|--------------------5--4---|(4)----------5--5h4----------|
D|--7------------------------|--------------------7--7-----|
A|--0--0--0--0--0--0---------|-----------------------------|
E|---------------------------|-----------------------------|
       PM..........|
    
    James
e| |-------------------------||
B| *-------------------------*|
G|4|-------------------------||
D|x|-----------------------7-||
A| *--0--0--0--0--0--0--0----*|
E| |-------------------------||
   |  PM................|
   |
   |Kirk
e| |-------------------------||
B| *-------------------------*|
G|4|-----------------------5-||
D|x|-------------------------||
A| |--0--0--0--0--0--0--0----*|
E| |-------------------------||
      PM................|

  James
e|-------------------------|-------------------------|-------------------------|-------------------------|
B|-------------------------|-------------------------|-------------------------|-------------------------|
G|-------------------------|-------------------------|-------------------------|-------------------------|
D|-----------------------5-|-------------------------|-----------------------5-|-------------------------|
A|--0--0--0--0--0--0--0----|--0--0--0--0--6--5--3--5-|--0--0--0--0--0--0--0----|--0--0--0--0--6--5--3--5-|
E|-------------------------|-------------------------|-------------------------|-------------------------|
 |  PM................|       PM.......|                PM................|       PM.......|
 |
 |Kirk
e|-------------------------|-------------------------|-------------------------|-------------------------|
B|-------------------------|-------------------------|-------------------------|-------------------------|
G|-----------------------4-|-------------------------|-----------------------4-|-------------------------|
D|-------------------------|--------------8--7--5--7-|-------------------------|--------------8--7--5--7-|
A|--0--0--0--0--0--0--0----|--0--0--0--0-------------|--0--0--0--0--0--0--0----|--0--0--0--0-------------|
E|-------------------------|-------------------------|-------------------------|-------------------------|
    PM................|       PM.......|                PM................|       PM.......|

[Verse 1]
Guitar 1 + 2
e||-------------------------|--------------------------|
B|*-------------------------|--------------------------|
G||-------------------------|--------------------------|
D||-------------------------|--------------------------|
A|*--4--4--4--4--4--4--4--4-|--4--4--4--4--4--4--4--5-5|
E||--2--2--2--2--2--2--2--2-|--2--2--2--2--2--2--2--3-3|
     PM................................................|
              Feel no pain, but my life ain't easy
              To escape from the true false world 

e|--------------------------|--------------------------|
B|--------------------------|--------------------------|
G|--------------------------|--------------------------|
D|--------------------------|--------------------------|
A|--5-5-4--4--4--4--4--4--4-|--4--4--4--4--4--4--4--5-5|
E|--3-3-2--2--2--2--2--2--2-|--2--2--2--2--2--2--2--3-3|
    PM.................................................|
               I  know  I'm  my  best  fri-e-end
               Un--da--maged   des---ti---ny 

e|-------------------------|--------------------------|--------------------------|----------------------||
B|-------------------------|--------------------------|--------------------------|----------------------*|
G|-------------------------|--------------------------|--------------------------|----------------------||
D|-------------------------|--------------------------|--------------------------|----------------------||
A|-5-5-4--4--4--4--4--4--4-|--4--4--4--4--4--4--4--5-5|--5-5-4--4--4--4--4--4--4-|--4----5------2-----3-*|
E|-3-3-2--2--2--2--2--2--2-|--2--2--2--2--2--2--2--3-3|--3-3-2--2--2--2--2--2--2-|--2----3----0-0---1-1-||
   PM..........................................................................|              PM    PM  
                Noone cares,butI'msomuch stronger            I'llfightuntiltheend
                Can'tget caught inthe endless circle         Ring of stu-pi-di-ty

[Chorus]
  James
e| |--------------------|---------------------|---------------------|-----------------------||
B| *--------------------|---------------------|---------------------|-----------------------*|
G|3|--------------------|---------------------|---------------------|---------------------2-||
D|x|--------------------|---------------------|---------------------|-------------------4---||
A| *--7-----------------|--(7)--------------5-|--(5)--------------4-|--(4)-----------4------*|
E| |--5-----------------|--(5)--------0--5--3-|--(3)--------0--3--2-|--(2)--------2---------||
   |  LR...........................|  PM.|  LR...........|  PM.|  LR............| PM......|
   |         Out  for my   own,    out  to  be   free--ee--ee--ee
   |         One  with my  mind,    Theyjustcan't see--ee--ee--ee
   |         No  need to   hear,   thingsthatthey say--ay--ay--ay
   |
   |Kirk
e| |--------------------|---------------------|---------------------|-----------------------||
B| *--------------------|---------------------|---------------------|-----------------------*|
G|3|----------7---6---4-|-----------7---6---7-|---7\===\4-----------|-----------------------||
D|x|--------------------|---7-----------------|---------------------|-----------------------||
A| *--------------------|---------------------|---------------------|-----------------------*|
E| |--------------------|---------------------|---------------------|-----------------------||

  James
e|--------------------|---------------------|---------------------|-----------------------|
B|--------------------|---------------------|---------------------|-----------------------|
G|--------------------|---------------------|---------------------|-----------------------|
D|--------------------|---------------------|---------------------|-----------------------|
A|--7-----------------|--(7)--------------5-|--(5)--------------4-|--(4)------------------|
E|--5-----------------|--(5)--------0--5--3-|--(3)--------0--3--2-|--(2)------------------|
 |  LR...........................|  PM.|  LR...........|  PM.|  LR....................|
 |         Life's formy  own      to  live my own way--ay--ay--ay
 |
 |Kirk
e|--------------------|---------------------|---------------------|-----------------------|
B|--------------------|---------------------|---------------------|-----------------------|
G|----------7---6---4-|-----------7---6---7-|---7\===\4-----------|---2-------------------|
D|--------------------|---7-----------------|---------------------|-----------------------|
A|--------------------|---------------------|---------------------|-----------------------|
E|--------------------|---------------------|---------------------|-----------------------|

[Bridge]
  James
e|-------------------------|-------------------------|-------------------------|-------------------------|
B|-------------------------|-------------------------|-------------------------|-------------------------|
G|-------------------------|-------------------------|-------------------------|-------------------------|
D|--7--------------------5-|-------------------------|--7--------------------5-|-------------------------|
A|--0--0--0--0--0--0--0----|--0--0--0--0--6--5--3--5-|--0--0--0--0--0--0--0----|--0--0--0--0--6--5--3--5-|
E|-------------------------|-------------------------|-------------------------|-------------------------|
 |  PM................|       PM.......|                PM................|       PM.......|
 |
 |Kirk
e|-------------------------|-------------------------|-------------------------|-------------------------|
B|-------------------------|-------------------------|-------------------------|-------------------------|
G|-----------------------4-|-------------------------|-----------------------4-|-------------------------|
D|--7----------------------|--------------8--7--5--7-|--7----------------------|--------------8--7--5--7-|
A|--0--0--0--0--0--0--0----|--0--0--0--0-------------|--0--0--0--0--0--0--0----|--0--0--0--0-------------|
E|-------------------------|-------------------------|-------------------------|-------------------------|
    PM................|       PM.......|                PM................|       PM.......|

[Verse 2]
Guitar 1 + 2
e||-------------------------|--------------------------|
B|*-------------------------|--------------------------|
G||-------------------------|--------------------------|
D||-------------------------|--------------------------|
A|*--4--4--4--4--4--4--4--4-|--4--4--4--4--4--4--4--5-5|
E||--2--2--2--2--2--2--2--2-|--2--2--2--2--2--2--2--3-3|
     PM................................................|
              Rape my mind and destroy my feelings
              Feedmybrainwithyoursocalledstandards

e|--------------------------|--------------------------|
B|--------------------------|--------------------------|
G|--------------------------|--------------------------|
D|--------------------------|--------------------------|
A|--5-5-4--4--4--4--4--4--4-|--4--4--4--4--4--4--4--5-5|
E|--3-3-2--2--2--2--2--2--2-|--2--2--2--2--2--2--2--3-3|
    PM.................................................|
         Don't tell me    what    to    do
         Who   says  that  I ain't ri--ight

e|-------------------------|--------------------------|--------------------------|----------------------||
B|-------------------------|--------------------------|--------------------------|----------------------*|
G|-------------------------|--------------------------|--------------------------|----------------------||
D|-------------------------|--------------------------|--------------------------|----------------------||
A|-5-5-4--4--4--4--4--4--4-|--4--4--4--4--4--4--4--5-5|--5-5-4--4--4--4--4--4--4-|--4----5------2-----3-*|
E|-3-3-2--2--2--2--2--2--2-|--2--2--2--2--2--2--2--3-3|--3-3-2--2--2--2--2--2--2-|--2----3----0-0---1-1-||
   PM..........................................................................|              PM    PM
        I don't care now, 'cause I'm on my side              AndIcanseethroughyou
        Break a-way from your com-mon fash-ion             Seethroughyourblurrysight

[Chorus]
  James
e| |--------------------|---------------------|---------------------|-----------------------||
B| *--------------------|---------------------|---------------------|-----------------------*|
G|3|--------------------|---------------------|---------------------|---------------------2-||
D|x|--------------------|---------------------|---------------------|-------------------4---||
A| *--7-----------------|--(7)--------------5-|--(5)--------------4-|--(4)-----------4------*|
E| |--5-----------------|--(5)--------0--5--3-|--(3)--------0--3--2-|--(2)--------2---------||
   |  LR...........................|  PM.|  LR...........|  PM.|  LR............| PM......|
   |         Out  for my   own,    out  to  be   free--ee--ee--ee
   |         One  with my  mind,    Theyjustcan't see--ee--ee--ee
   |         No  need to   hear,   thingsthatthey say--ay--ay--ay
   |
   |Kirk
e| |--------------------|---------------------|---------------------|-----------------------||
B| *--------------------|---------------------|---------------------|-----------------------*|
G|3|----------7---6---4-|-----------7---6---7-|---7\===\4-----------|-----------------------||
D|x|--------------------|---7-----------------|---------------------|-----------------------||
A| *--------------------|---------------------|---------------------|-----------------------*|
E| |--------------------|---------------------|---------------------|-----------------------||

  James
e|--------------------|---------------------|---------------------|-----------------------|
B|--------------------|---------------------|---------------------|-----------------------|
G|--------------------|---------------------|---------------------|-----------------------|
D|--------------------|---------------------|---------------------|-----------------------|
A|--7-----------------|--(7)--------------5-|--(5)--------------4-|--(4)------------------|
E|--5-----------------|--(5)--------0--5--3-|--(3)--------0--3--2-|--(2)------------------|
 |  LR...........................|  PM.|  LR...........|  PM.|  LR....................|
 |         Life's formy  own      to  live my own way--ay--ay--ay
 |
 |Kirk
e|--------------------|---------------------|---------------------|-----------------------|
B|--------------------|---------------------|---------------------|-----------------------|
G|----------7---6---4-|-----------7---6---7-|---7\===\4-----------|---2-------------------|
D|--------------------|---7-----------------|---------------------|-----------------------|
A|--------------------|---------------------|---------------------|-----------------------|
E|--------------------|---------------------|---------------------|-----------------------|


e| ||------------------------------------------------------------||
B| |*------------------------------------------------------------*|
G|8||-----------4---2------------------------2-------------------||
D|/||--------4--4---2---------------------4--2---5---------------||
A|4|*-----4-----2---0------------------4-----0---5---------------*|
E| ||--2----------------------------2------------3---------------||
       PM....|                         PM....|



e|----------------------------------|----------------------------------|
B|----------------------------------|----------------------------------|
G|----------4---2-------------------|----------4---2-------------------|
D|--4---4---4---2---4---4---5---5---|--4---4---4---2---4---4---5---5---|
A|--4---4---2---0---4---4---5---5---|--4---4---2---0---4---4---5---5---|
E|--2---2-----------2---2---3---3---|--2---2-----------2---2---3---3---|
    PM..|           PM..|              PM..|           PM..|
   See     them      try to  bring     the     hammer    down


e|----------------------------------|----------------------------------|
B|----------------------------------|----------------------------------|
G|----------4---2-------------------|----------4---2-------------------|
D|--4---4---4---2---4---4---5---5---|--4---4---4---2---2---2---5---5---|
A|--4---4---2---0---4---4---5---5---|--4---4---2---0---2---2---5---5---|
E|--2---2-----------2---2---3---3---|--2---2-----------0---0---3---3---|
    PM..|           PM..|              PM..|           PM..|
   No      damn      chains  can       hold  me to the   ground


e| |-------------------------|-------------------------| |-------------------------------------|
B| |-------------------------|-------------------------| |-------------------------------------|
G|4|-----------4--2--2--2--2-|-----------2-------------|6|-----------2-------------------------|
D|/|--------4--4--2--2--2--2-|--------4--2--5--5--5--5-|/|--------4----------------------------|
A|4|-----4-----2--0--0--0--0-|-----4-----0--5--5--5--5-|4|-----4--------3--3--3--3--3--3--3--3-|
E| |--2----------------------|--2-----------3--3--3--3-| |--2-----------1--1--1--1--1--1--1--1-|
      PM......................................................................................|


[Solobacking]
  James
e| |------------------------|------------------------||
B| *------------------------|------------------------*|
G|4|------------------------|------------------------||
D|x|----------------------5-|------------------------||
A| *-2----------------------|------------------------*|
E| |-0--0--0--0--0--0--0----|-0--0--0--0--6--5--3--5-||
 |   PM................|      PM.......|

e| |-----------------------|-----------------------------|| |------------------------|
B| *-----------------------|-----------------------------*| |------------------------|
G|3|-----------------------|-----------------------------||6|------------------------|
D|x|-----------------------|-----------------------------||/|------------------------|
A| *--------------4--------|-----4--4--------5--5--------*|4|-----4--4--------5------|
E| |--0--2--2--0--2--------|--0--2--2--0--0--3--3--------|| |--0--2--2--0--0--3------|
      PM.......|              PM       PM.|                    PM       PM.|

[Solo-Leads]
Kirk
e|------------------------------------|-----------------------------------------------|
B|--15b17--------15b17--------15b17---|-15b17--15b17--15b17--15b17----15b17(r15)-14-12|
G|------------------------------------|-----------------------------------------------|
D|------------------------------------|-----------------------------------------------|
A|------------------------------------|-----------------------------------------------|
E|------------------------------------|-----------------------------------------------|

e|-15b17----15b17----15b17----15b===17-|-=====(r15)---12---12--------------12-|
B|-------------------------------------|-----------------15----15b17~~~~15----|
G|-------------------------------------|--------------------------------------|
D|-------------------------------------|--------------------------------------|
A|-------------------------------------|--------------------------------------|
E|-------------------------------------|--------------------------------------|

e|-15-14-12----14-12-------12----------------------|---------------------------------------------|
B|----------15-------15-14----15-14-12-15-14-12----|-14-12-------12------------------------------|
G|----------------------------------------------14-|-------14-12----14-12-11-14-12p11p9---7------|
D|-------------------------------------------------|------------------------------------------9--|
A|-------------------------------------------------|---------------------------------------------|
E|-------------------------------------------------|---------------------------------------------|

e|---------------------------------|-------------------------------|
B|---------------------------------|-------------------------------|
G|-7b8----------7---9---7---9---7--|-9b11r9--7------7--------------|
D|----------9----------------------|------------9------------------|
A|---------------------------------|-------------------------------|
E|---------------------------------|-------------------------------|

e|-12--10--9------9--10--9-----|-----------------------------|
B|------------12------------12-|--10--9--10b12----10----9h10-|
G|-----------------------------|-----------------------------|
D|-----------------------------|-----------------------------|
A|-----------------------------|-----------------------------|
E|-----------------------------|-----------------------------|

e|--------------------------|---------------------------------|
B|-9------------------------|---------------------------------|
G|-------9------------9--11-|-11b13r11-9-11--9~~~~~-----9--11-|
D|----------11~~~~~~~-------|-----------------------11--------|
A|--------------------------|---------------------------------|
E|--------------------------|---------------------------------|

e|----------------------------------------|---------------------9h12p9------------|
B|-------9--12p9----9-12p9-10p9----9------|--------------9-12p9--------12p9\7-----|
G|-11b13---------11-------------11---11-9-|-11p9----9-11----------------------9p8-|
D|----------------------------------------|------11-------------------------------|
A|----------------------------------------|---------------------------------------|
E|----------------------------------------|---------------------------------------|

e| |-----------------------------------------------------|
B| |--5p4p0-0-7p0-0-0-9p0-0-0-10p0-0-0-12p0-0-0-10p0-0-0-|
G|6|-----------------------------------------------------|
D|/|-----------------------------------------------------|
A|4|-----------------------------------------------------|
E| |-----------------------------------------------------|

[Bridge]
  James
e| | |-------------------------|-------------------------||
B| | *-------------------------|-------------------------*|
G|4|6|-------------------------|-------------------------||
D|/|x|-----------------------5-|-------------------------||
A|4| *-------------------------|-------------------------*|
E| | |--0--0--0--0--0--0--0----|--0--0--0--0--6--5--3--5-||
 |      PM................|       PM.......|
 |
 |Kirk
e| | |-------------------------|-------------------------||
B| | *-------------------------|-------------------------*|
G|4|6|-----------------------4-|-------------------------||
D|/|x|-------------------------|--------------8--7--5--7-||
A|4| *-------------------------|-------------------------*|
E| | |--0--0--0--0--0--0--0----|--0--0--0--0-------------||
        PM................|       PM.......|


[Outro]
  James
e| |------------------------|------------------------|------------------------|------------------------||
B| *------------------------|------------------------|------------------------|------------------------*|
G|7|------------------------|------------------------|------------------------|------------------------||
D|x|----------------------5-|------------------------|----------------------5-|------------------------||
A| *-2----------------------|------------------------|-2----------------------|------------------------*|
E| |-0--0--0--0--0--0--0----|-0--0--0--0--6--5--3--5-|-0--0--0--0--0--0--0----|-0--0--0--0--6--5--3--5-||
 |   PM................|      PM.......|               PM................|      PM.......|
 |            Life's for  my own  To      live my  own w--------a--------y
 |
 |Kirk
e| |------------------------|------------------------|------------------------|------------------------||
B| *------------------------|------------------------|------------------------|------------------------*|
G|7|------------------------|------------------------|------------------------|------------------------||
D|x|----------8-----7-----5-|-2--------8-----5-----7-|-5----------------------|------------------------||
A| *------------------------|------------------------|------------------------|------------------------*|
E| |----------6-----5-----3-|-0--------6-----3-----5-|-3----------------------|------------------------||
                                                       LR.............................................|
            
Submit corrections



        Escape lessons Hard to play? Try these video lessons and learn fast Escape lessons
        
↑ Back to top | Tablatures and chords for acoustic guitar and electric guitar, ukulele, drums are parodies/interpretations of the original songs. You may use it for private study, scholarship, research or language learning purposes only