Home » M » Metal Church »

Metal Church - Gods Of Wrath Tabs

Artists:  A B C D E F G H I J K L M N O P Q R S T U V W X Y Z # 

Gods Of Wrath Tabs

(ver. 1) Click to play this song!
Metal Church
 Band: Metal Church
 
 Tab by Rick Garman

 Tune down one half step to: D#, G#, C#, F#, A#, D#

 |0---------------0---------------|
 |--1---0-----0-----1---0-----0---|
 |----2-----2---2-----2-----2---2-|
 |--------------------------------|
 |--------------------------------|
 |--------------------------------|

 |-------------------------|
 |-----1-------1-----------|
 |--(2)--2--(2)--2---------|
 |-------------------------|
 |3--------2-----------3-2-|
 |-----------------2-3-----|

 |5-----5-----5-----5-----6---|5-----5-----5-----5-----5---6---|
 |--6-----6-----6-----6-------|--6-----6-----6-----6-----6---6-|
 |----7-----7-----7-----7-----|----7-----7-----7-----7---------|
 |----------------------------|--------------------------------|
 |----------------------------|--------------------------------|
 |----------------------------|--------------------------------|

 |5-----5-----5-----5------6---|   |--------------------------|
 |--6-----6-----6-----6--------|   |--------------------------|
 |----7-----7-----7-----7------|   |2-------2-5---2---5---7-7-|
 |-----------------------------|   |2-------2-5---2---5---7-7-|
 |-----------------------------|   |0-------0-3---0---3---5-5-|
 |-----------------------------|   |----2-3-------------------|

 |------------------------------|
 |------------------------------|
 |----2-------2-5---2---5---7-7-|
 |3-5-2-------2-5---2---5---7-7-|
 |3-5-0-------0-3---0---3---5-5-|
 |1-3-----2-3-------------------|

 |------------------------|--------------------------|
 |------------------------|----3---3-3---3--(3)-(3)--|
 |------------------------|----0---0-0---0--(0)-(0)--|
 |3---3-3---3-3--3--3-3---|3-3-0---0-0---0--(0)-(0)--|
 |3---3-3---3-3--3--3-3---|3-3-----------------------|
 |1---1-1---1-1--1--1-1---|1-1-3---3-3---3--(3)-(3)--|

 |------------------------|--------------------------|
 |------------------------|--------------------------|
 |2-----------------------|--------------------------|
 |2-----------------------|5-------------------------|
 |0-----------------------|5-------------------------|
 |------------------------|3-------------------------|

 |------------------------------------------------------------|
 |------------------------------------------------------------|
 |2---2------2---2------2---2------2---2------5---4-----------|
 |2---2------2---2------2---2------2---2------5---4-----------|
 |0---0------0---0------0---0------0---0------3---2-------3-2-|
 |----------------------------------------------------2-3-----|

 |----------------------------------|  |----------------------|
 |----------------------------------|  |----------------------|
 |2---------------------------------|  |2---------------------|
 |2------5------3------2------------|  |2---------------------|
 |0------5------3------2------------|  |0---------------------|
 |-------3------1------0------------|  |----------------------|
            
Submit corrections

↑ Back to top | Tablatures and chords for acoustic guitar and electric guitar, ukulele, drums are parodies/interpretations of the original songs. You may use it for private study, scholarship, research or language learning purposes only