Home » M » Mest »

Mest - This Time Tabs

Artists:  A B C D E F G H I J K L M N O P Q R S T U V W X Y Z # 

This Time Tabs

(ver. 1) Click to play this song!
Mest
-----------------------------------------------------------------------------
-----------------------------------------------------------------------------

Tuning: Standard EADGBe

This is my first tab so bear with me, i hope it sound ok and that you can understand it.

Intro - Lead Guitar
e|--------------------------------------------------------------------------|
B|--------------------------------------------------------------------------|
G|--------5-----5--6--------5-----5--6--------5-----5--6--5--7--8--10-------|
D|-----5-----5-----------5-----5-----------5-----5--------------------------|
A|--4------------------------------------------------------------------4----|
E|--------------------6-----------------2-----------------------------------|

Intro - Guitar (Best to listen to strumming)
   C#5  A#5  F#5  G#5
e|--------------------------------------------------------------------------|
B|--------------------------------------------------------------------------|
G|--6-----------------------------------------------------------------------|
D|--6----8----4----6--------------------------------------------------------|
A|--4----8----4----6--------------------------------------------------------|
E|-------6----2----4--------------------------------------------------------|

Verse
   C#5  A#5  F#5  G#5  C#5  A#5   A5  G#5
e|--------------------------------------------------------------------------|
B|--------------------------------------------------------------------------|
G|--6-------------------6---------------------------------------------------|
D|--6----8----4----6----6----8----7----6------------------------------------|
A|--4----8----4----6----4----8----7----6------------------------------------|
E|-------6----2----4---------6----5----4------------------------------------|

Pre-Chorus
e|--------------------------------------------------------------------------|
B|--------------------------------------------------------------------------|
G|--------------------------------------------------------------------------|
D|--4-------6-----------8-------86---4-------6------------------------------|
A|--4-------6-----------8-------86---4-------6------------------------------|
E|--2-------4-----------6-------64---2-------4------------------------------|
    I can't say goodbye forever      But I'll say goodbye for now

Chorus
e|----------------------------------------------------------------------|
B|----------------------------------------------------------------------|
G|--6-------------------------------------------------------------------|
D|--6----------------8---------------4--------6-------------------------|  x2
A|--4----------------8---------------4--------6-------------------------|
E|-------------------6---------------2--------4-------------------------|
    This time, like last time, it's over I'm leaving this behind

Intro
Verse
Pre-Chorus - distorted
Chorus + Lead guitar Intro

Bridge - Distorted
e|------------------------------------------------------------------------|
B|------------------------------------------------------------------------|
G|------------------------------------------------------------------------|
D|--4-------6------------8------------86----------------------------------|
A|--4-------6------------8------------86----------------------------------|
E|--2-------4------------6------------64----------------------------------|
   I can't stand another day without you
   But I have to walk away (Walk away)
   Infatuation's got me going crazy

e|--------------------------------------------------------------------------|
B|--------------------------------------------------------------------------|
G|--------------------------------------------------------------------------|
D|--4------6------------3---------6-----------------------------------------|
A|--4------6------------3---------6-----------------------------------------|
E|--2------4------------1---------4-----------------------------------------|
   Desperation makes me stay I'm leaving this behind

Chorus
Verse - distorted

Outro + Lead Guitar Intro
e|--------------------------------------------------------------------------|
B|--------------------------------------------------------------------------|
G|--6---------------------------------6-------------------------------------|
D|--6----8----4----6------------------6-------------------------------------|
A|--4----8----4----6------------------4-------------------------------------|
E|-------6----2----4--------------------------------------------------------|
                   I'm leaving this behind


=============================================================================
            
Submit corrections

↑ Back to top | Tablatures and chords for acoustic guitar and electric guitar, ukulele, drums are parodies/interpretations of the original songs. You may use it for private study, scholarship, research or language learning purposes only