Home » M » Mest »

Mest - Reason Tabs

Artists:  A B C D E F G H I J K L M N O P Q R S T U V W X Y Z # 

Reason Tabs

(ver. 1) Click to play this song!
Mest
Heard it on the 31st October and did the TAB the 
same day. Its one of their best Ska/Reggae Songs. 
I've made the whole song, so even beginners can play 
it. Its a very simple song, but hey...MEST RULEZ and 
the song kicks ass. ;-) 

U can play it with or without the bass note. 
Every chord is played with Ska Upstrokes. 

Let these 2 ring. (SKA Part starts @ about 00:20) 
-5--------8------5--5--5--5--5--5--5--5--5--5--5--5--5--5--5--5--------------- 
-5--------8------5--5--5--5--5--5--5--5--5--5--5--5--5--5--5--5--------------- 
-5--------8------5--5--5--5--5--5--5--5--5--5--5--5--5--5--5--5--------------- 
-7-------10------------------------------------------------------------------- 
-7-------10------------------------------------------------------------------- 
-5--------8------------------------------------------------------------------- 

-8--8--8--8--8--8--8--8----5--5--5--5--5--5--5--5----1--1--1--1----8--8--8--8- 
-8--8--8--8--8--8--8--8----5--5--5--5--5--5--5--5----1--1--1--1----8--8--8--8- 
-9--9--9--9--9--9--9--9----5--5--5--5--5--5--5--5----2--2--2--2----9--9--9--9- 

-5--5--5--5--5--5--5--5----1--1--1--1----8--8--8--8--------------------------- 
-5--5--5--5--5--5--5--5----1--1--1--1----8--8--8--8--------------------------- 
-5--5--5--5--5--5--5--5----2--2--2--2----9--9--9--9--------------------------- 

-5--5--5--5--5--5--5--5--5--5--5--5--5--5--5--5------------------------------- 
-5--5--5--5--5--5--5--5--5--5--5--5--5--5--5--5------------------------------- 
-5--5--5--5--5--5--5--5--5--5--5--5--5--5--5--5------------------------------- 

(This stuff @ about 01:13) 
-1--1----3--3----8--8--8--8--------------------------------------------------- 
-1--1----3--3----8--8--8--8-----------5------6-----5-------------------------- 
-2--2----4--4----9--9--9--9-------------5------5-----5------------------------ 
------------------------------------------7------7-----7---------------------- 

-5--5--5--5--5--5--5--5----1--1--1--1----8--8--8--8--------------------------- 
-5--5--5--5--5--5--5--5----1--1--1--1----8--8--8--8--------------------------- 
-5--5--5--5--5--5--5--5----2--2--2--2----9--9--9--9--------------------------- 

-5--5--5--5--5--5--5--5----1--1--1--1----8--8--8--8--------------------------- 
-5--5--5--5--5--5--5--5----1--1--1--1----8--8--8--8--------------------------- 
-5--5--5--5--5--5--5--5----2--2--2--2----9--9--9--9--------------------------- 

-5--5--5--5--5--5--5--5--5--5--5--5--5--5--5--5----1--1----3--3----8--8--8--8- 
-5--5--5--5--5--5--5--5--5--5--5--5--5--5--5--5----1--1----3--3----8--8--8--8- 
-5--5--5--5--5--5--5--5--5--5--5--5--5--5--5--5----2--2----4--4----9--9--9--9- 

A little break for the guitar (comes in again @ about 02:07) 
-5--5--5--5--5--5--5--5--5--5--5--5--5--5--5--5----1--1----3--3----8--8--8--8- 
-5--5--5--5--5--5--5--5--5--5--5--5--5--5--5--5----1--1----3--3----8--8--8--8- 
-5--5--5--5--5--5--5--5--5--5--5--5--5--5--5--5----2--2----4--4----9--9--9--9- 

These last chords r hard to hear.If u listen close, u hear them. 
-5--5--5--5--5--5--5--5--5--5--5--5--5--5--5--5----1--1----3--3----8--8--8--8- 
-5--5--5--5--5--5--5--5--5--5--5--5--5--5--5--5----1--1----3--3----8--8--8--8- 
-5--5--5--5--5--5--5--5--5--5--5--5--5--5--5--5----2--2----4--4----9--9--9--9- 

Thats all, sorry i cant post the lyrics cuz i dont understand everything correct 
cuz im just German. Now HAVE FUN with this TAB and if u have any suggestion or 
comments E-mail me. Watch out for their new album DESTINATION UNKNOWN coming out 
on November 13th. Bye. Later Thomas 
            
Submit corrections

↑ Back to top | Tablatures and chords for acoustic guitar and electric guitar, ukulele, drums are parodies/interpretations of the original songs. You may use it for private study, scholarship, research or language learning purposes only