Home » M » Merle Haggard »

Merle Haggard - Workin Man Blues Bass

Artists:  A B C D E F G H I J K L M N O P Q R S T U V W X Y Z # 

Workin Man Blues Bass

(ver. 1) Click to play this song!
Merle Haggard
 Rating:
4.3/5 (22 votes)
                [Intro]
   e e e e e e e e   e e e e e e e e   e e e e e e e e   e e e e e e e e
G|-----------------|-----------------|-----------------|-----------------|
D|-----------------|---------6-------|-6-------6-------|-6-------6-------|
A|-----------------|-------------6---|-----6-------6---|-----6-------6---|
E|-----------------|-----------------|-----------------|-----------------|
                                                            It’s a big job…
[Verse]
G|-----------------|-----------------|-----------------|-----------------|
D|-6-------6-------|-6-------6-------|-6-------6-------|-6-------6-------|
A|-----6-------6---|-----6-------6---|-----6-------6---|-----6-------6---|
E|-----------------|-----------------|-----------------|-----------------|
 
G|-----------------|-----------------|-----------------|-----------------|
D|-----------------|-----------------|-6-------6-----4-|-6-------6-------|
A|-4-------4-------|-4-------4-------|-----6-------6---|-----6-------6---|
E|-----4-------4---|-----4-------4---|-----------------|-----------------|
 
G|-----------------|---6---4---3-----|-----------------|-----------------|
D|-----------------|-6-----------4h5h|-6-------6-----4-|-6-------6-------|
A|-6-------6-------|-----------------|-----6-------6---|-----6-------6---|
E|-----6-------6---|-----------------|-----------------|-----------------|
 
[Verse]
G|-----------------|-----------------|-----------------|-----------------|
D|-6-------6-----4-|-6-------6-------|-6-------6-----4-|-6-------6-------|
A|-----6-------6---|-----6-------6---|-----6-------6---|-----6-------6---|
E|-----------------|-----------------|-----------------|-----------------|
 
G|-----------------|-----------------|-----------------|-----------------|
D|-----------------|-----------------|-6-------6-----4-|-6-------6-------|
A|-4-------4-------|-4-------4-------|-----6-------6---|-----6-------6---|
E|-----4-------4---|-----4-------4---|-----------------|-----------------|
 
G|-----------------|---6---4---3-----|-----------------|-----------------|
D|-----------------|-6-----------4h5h|-6-------6-----4-|-6-------6-------|
A|-6-------6-------|-----------------|-----6-------6---|-----6-------6---|
E|-----6-------6---|-----------------|-----------------|-----------------|
 
[Verse]
G|-----------------|-----------------|-----------------|-----------------|
D|-6-------6-----4-|-6-------6-----4-|-6-------6-----4-|-6-------6-------|
A|-----6-------6---|-----6-------6---|-----6-------6---|-----6-------6---|
E|-----------------|-----------------|-----------------|-----------------|
 
   e e e e e e e s s   e e e e e e e e   e e e e e e e e   e e e e e e e e
G|-----------6---4---|-----------------|-----------------|-----------------|
D|-----------------6-|-----------------|-6-------6-----4-|-6-------6-------|
A|-4-------4---------|-4-------4-------|-----6-------6---|-----6-------6---|
E|-----4-------------|-----4-------4---|-----------------|-----------------|
 
G|-----------------|---6---4---3-----|-----------------|-----------------|
D|-----------------|-6-----------4h5h|-6-------6-------|-6-------6-------|
A|-6-------6-------|-----------------|-----6-------6---|-----6-------6---|
E|-----6-------6---|-----------------|-----------------|-----------------|
 
[Intrumental]
   s s s s s s s s s s s s s s s s | s s s s s s s s s s s s s s s s |
G|---------------------------------|---------------------------------|
D|-6-----------4---6-6---------4---|-6-----------4---6-6---------4---|
A|---------6-6-------------6-------|---------6-6-------------6-------|
E|---------------------------------|---------------------------------|
 
   s s s s s s s s s s s s s s s s | s s s s s s s s s s s s s s s s |
G|---------------------------------|---------------------------------|
D|-6-----------4---6-6---------4---|-6---4---------------------------|
A|---------6-6-------------6-------|---------6-------4-------6---3---|
E|---------------------------------|---------------------------------|
 
   s s s s s s s s s s s s s s s s | s s s s s s s s s s s s s s s s |
G|---------------------6-------4---|---------------------------------|
D|-------------------------------6-|-----------------------------4---|
A|-4---------------4---------------|-4---------------4-----6-6-------|
E|---------4-----------------------|---------4-----------------------|
 
   s s s s s s s s s s s s s s s s | s s s s s s s s s s s s s s s s |
G|---------------------------------|---------------------------------|
D|-6---------------6-6---------4---|-6---------------6-6-------------|
A|---------6---------------6-------|---------6---------------6-------|
E|---------------------------------|---------------------------------|
 
   e e e e e e e e   e e e e e e e e   e e e e e e e e   e e e e e e e e
G|-----------------|---6---4---3-----|-----------------|-----------------|
D|-----------------|-6-----------4h5h|-6-------6-----4-|-6-------6-------|
A|-6-------6-------|-----------------|-----6-------6---|-----6-------6---|
E|-----6-------6---|-----------------|-----------------|-----------------|
 
[Verse]
G|-----------------|-----------------|-----------------|-----------------|
D|-6-------6-----4-|-6-------6-------|-6-------6-------|-6-------6-------|
A|-----6-------6---|-----6-----4---6-|-----6-------6---|-----6-------6---|
E|-----------------|-----------------|-----------------|-----------------|
 
G|-----------------|-----------------|-----------------|-----------------|
D|-----------------|-----------------|-6-------6-----4-|-6-------6-------|
A|-4-------4-------|-4-------4-------|-----6-------6---|-----6-------6---|
E|-----4-------4---|-----4-------4---|-----------------|-----------------|
 
G|-----------------|---6---4---3-----|-----------------|-----------------|
D|-----------------|-6-----------4h5h|-6-------6-------|-6-------6-------|
A|-6-------6-------|-----------------|-----6-------6---|-----6-------6---|
E|-----6-------6---|-----------------|-----------------|-----------------|
 
[Outro]
G|-----------------|-----------------|
D|-6-------6-------|-6---------------|
A|-----6-------6---|-----------------|
E|-----------------|-----------------|
            
Submit corrections

↑ Back to top | Tablatures and chords for acoustic guitar and electric guitar, ukulele, drums are parodies/interpretations of the original songs. You may use it for private study, scholarship, research or language learning purposes only