» » »

Merle Haggard - Wishing All These Old Things Were New Tabs

Artists:  A B C D E F G H I J K L M N O P Q R S T U V W X Y Z # 

Wishing All These Old Things Were New Tabs

(ver. 1) Click to play this song!
Merle Haggard
 Rating:
4/5 (4 votes)


 Wishing All These Old Things Were New  lessons Tabs too difficult? Try these video lessons and learn fast
 
                Merle Haggard - Wishing All These Old Things Were New (lead solo)


***********************************************************************

h   =   hammer-on                    p   =   pulloff

br  =   bend & release               \   =   slide down

b   =   bend                         x   =   dead note

/   =   slide up                     

***********************************************************************



E-------------------------------------------------12--10-10p8--
B-------5-6p5-5--------------------5-6-7-8-10p8--8--12---------
G--5h7h8-----8-8p7p5-7br-5-5h7-----------------10--------------
D-------------------7-----7---5---5----------------------------
A--------------------------------------------------------------
E--------------------------------------------------------------

                                                            rake

E-----------8---------------------------------------------------------
B--8h10br--8---------------------------------8------------6b----------
G--------10--10-8h9------------------5-7br-5--7b-5-7b-7-5-----7b-7p5--
D------------------10-----------5h6h7-------7-----7------7---x--------
A---------------------10\9\8\7------------------------------x---------
E---------------------------------------------------------------------


E-----8-8-8-8----12-13-13br-p11b------------------15--------
B-------------15b---------------------13-15br-13----15b-13--
G--5/9---------------------------12/14----------14----------
D-----------------------------------------------------------
A-----------------------------------------------------------
E-----------------------------------------------------------


E---------------------------------|
B----8----------------------------|
G--11-11p10-8-9-8-7p5-5-----------|
D--------------------7-7-5--------|
A-------------------------5br/7---|
E---------------------------------|
            
Submit corrections



        Wishing All These Old Things Were New  lessons Hard to play? Try these video lessons and learn fast Wishing All These Old Things Were New  lessons
        
↑ Back to top | Tablatures and chords for acoustic guitar and electric guitar, ukulele, drums are parodies/interpretations of the original songs. You may use it for private study, scholarship, research or language learning purposes only