Home » M » Merle Haggard »

Merle Haggard - The Fighting Side Of Me Tabs

Artists:  A B C D E F G H I J K L M N O P Q R S T U V W X Y Z # 

The Fighting Side Of Me Tabs

(ver. 1) Click to play this song!
Merle Haggard
 Rating:
4/5 (4 votes)
                Merle Haggard - The Fighting Side Of Me (lead riffs)


***********************************************************************

This riff is used as the intro and in the song itself.

E----------------------------------------------------------|
B----------------------------------------------------------|
G--4-0-4-2-0-2--2-0-2-1-0-1--1-0-1-------------------------|
D---------------------------------4-0-4--2-0-2-1---2-------|
A-----------------------------------------------2h4-4p2----|
E------------------------------------------------------0---|


This is the ending of the song.

E------------------------------------------|
B------------------------------------------|
G------------------------------------------|
D------3-3-3-3----3-3-3-3----3-3-3-3-------|
A-----3----------3----------3--------------|
E--0h1--------0h1--------0h1--------0h1----|
            
Submit corrections

↑ Back to top | Tablatures and chords for acoustic guitar and electric guitar, ukulele, drums are parodies/interpretations of the original songs. You may use it for private study, scholarship, research or language learning purposes only