Home » M » Merle Haggard »

Merle Haggard - Irma Jackson Tabs

Artists:  A B C D E F G H I J K L M N O P Q R S T U V W X Y Z # 

Irma Jackson Tabs

(ver. 1) Click to play this song!
Merle Haggard
Irma Jackson 
Key of C

Intro & Solo

b= bend
s= slide

E------------------------------------
B------------------------------------
G------------------------------------
D--5-------5-5-7-5-------5-7-5-------
G----7-8-9---------8-7-8-------8-7---
E------------------------------------


E------------------------------------
B------------------------------------
G------------------------------------
D----------0-2-3s5-5-----------------
A----0-2h3-----------7-7s8-8-7-5-----
E--3-----------------------------7-8-

E------------------------------------
B------------------------------------
G------------------------------------
D------------------------------------
A--7-7-8-7---------------------------
E----------8-------------------------


Riff

AFTER:
"...there's a mighty wall between us standing high"

E------------------------------------
B------------------------------------
G------------------------------------
D------------3-4-5-------------------
A----2-3-5---------------------------
E--3---------------------------------


enjoy!!!!!!!
            
Submit corrections

↑ Back to top | Tablatures and chords for acoustic guitar and electric guitar, ukulele, drums are parodies/interpretations of the original songs. You may use it for private study, scholarship, research or language learning purposes only