Home » M » Merle Haggard »

Merle Haggard - Huntsville Tabs

Artists:  A B C D E F G H I J K L M N O P Q R S T U V W X Y Z # 

Huntsville Tabs

(ver. 1) Click to play this song!
Merle Haggard
HUNTSVILLE

=================

/ = slide
x = muted click
h = hammer-on
p = pull-off

=================

Key of E

INTRO

E---------------------------
B---------------------------
G---------------------------  
D---2---0---4-2---5/4-0h2---   PLAY TWICE
A-----x---x-----x-----------
E-0-------------------------


SOLO

E-------------------------------------------
B-------------------------------------------
G-2/4-4---4-4---4---------------------------
D-------x-----x---7-6p4-4/2-2---2-4-4/6-----
A-----------------------------x-------------
E-------------------------------------------

E-------------------------------------------
B-----------------5-5---9---7-5-7-7/9-------
G-4-4---4-4---4h6-----x---x-----------------
D-----x-----x-------------------------------
A-------------------------------------------
E-------------------------------------------

E-------------------------------------------------------
B-------------------------------------------------------
G-------------------------------------------------------
D---2---0---4-2---5/4-0h2----2---0---5-4-4/2---0h2------
A-----x---x-----x--------------x---x---------x----------
E-0------------------------0----------------------------


Some of the muted clicks are kind of a half click and half note. Listen to the 
recording and you will get the idea. I may add a sound byte in the future.

            
Submit corrections

↑ Back to top | Tablatures and chords for acoustic guitar and electric guitar, ukulele, drums are parodies/interpretations of the original songs. You may use it for private study, scholarship, research or language learning purposes only