Home » M » Merle Haggard »

Merle Haggard - Going Where The Lonely Go Tabs

Artists:  A B C D E F G H I J K L M N O P Q R S T U V W X Y Z # 

Going Where The Lonely Go Tabs

(ver. 1) Click to play this song!
Merle Haggard
(Complete)
Going Where the Lonely Go 		Merle Haggard


Intro: Just play alternating bass notes


1st solo (heavy distortion)

E-19-pb-r--17-pb-r-|-------------------------|-(2:21)-------------10--------------|
B---(19)17---(17)16|-15-13-13----------------|-------17---b--r---------b--r-------|
G------------------|----------17p16p14----14-|----14----11(13)11-----11(13)11-9~~-|
D------------------|-------------------16----|-16---------------------------------|
A------------------|-(2:17)------------------|------------------------------------|
E------------------|-------------------------|------------------------------------|

E--------bh---|-(2:28)----b----12--12--12--12------|
B-------8(10)-|------10-12(14)(14)(14)(14)(14)12~~-|
G-9\7p5-------|-9-11-------------------------r-----|
D-------------|------------------------------------|
A-(2:26)------|------------------------------------|
E-------------|------------------------------------|

E------10----10~~-----9---7------5~~|--------pb-r-b--r---|
B-----------------------------------|-pbr----(10)8(10)8--|
G-7/11----11-------/9---7---77-6----|-(9)7-5-------------|
D-----------------------------------|--------------------|
A-(2:32)----------------------------|-(2:37)----- -------|
E-----------------------------------|--------------------|


2nd solo (slight distortion, reverb)

E-(3:26)--------------------------|-(3:32)-----------------------------|
B---------------------------------|----------------------b-r-----------|
G---------------------------------|-----------------2-x-4(6)4-4-2~~/---|
D-----2-5-2-4-2-2p0---x--b-r------|-------2—4p2-4p2---4----------------|
A-0-4---------------4-3-2(3)2-0~~-|---0-4------------------------------|
E---------------------------------|-0----------------------------------|

E-(3:36)------------|-14--12----------/4-5-6-7--b-r--------------------|
B----10-10-10---10~-|-13b-13-10-x--10----------7(9)7-5---5~------------|
G-/9----------9-----|-----------11---------------------6---------------|
D-------------------|--------------------------------------------------|
A-------------------|-(3:39)-------------------------------------------|
E-------------------|--------------------------------------------------|

E-4-5-6-7--b-r----------------|-14-------------------------------------------|
B---------7(9)7---5p0-4p0-3p0-|-13b-12b-10-x-10-10-x-10-----10-x-10-10-x-10~-|
G---------------6-------------|------------9-------9----5/9----9-------9-----|
D-----------------------------|----------------------------------------------|
A-(3:44)----------------------|-(3:47)---------------------------------------|
E-----------------------------|----------------------------------------------|

E--bh---------------bh---|-------12----------9-10-11-12---b—r----------|
B-12(14)-12-10-10-12(14)-|-14-15----13h14---------------12(14)12-10\---|
G------------------------|----------------14---------------------------|
D------------------------|---------------------------------------------|
A-(3:52)-----------------|-(3:56)--------------------------------------|
E------------------------|---------------------------------------------|

E-(4:02)---------5-------5----------|-(4:06)----------------------------|
B-5--pbr-----b-r-----b-r-----bh-----|-----------------------------------|
G---(6)4p2-4(6)4---4(6)4---4(6)-4~--|-------4-0-4444444-5-4p2-2---2---2-|
D-----------------------------------|-4h5h6---------------------4---4---|
A-----------------------------------|-----------------------------------|
E-----------------------------------|-----------------------------------|

E-(4:11)-----------------------------|------------|
B------------------------------------|------------|
G-------22~--------------------------|-SAX---------|
D-2h3h4-----5~--4~--2-----2--b-r--0--|-------------|
A----------------------4----2(3)2----|-------------|
E------------------------------------|-------------|


3rd solo (slight distortion, reverb)

E-14----12----14----12----14----10---8---7---5~----|
B--------------------------------------------------|
G---13b---13b---13b---13b---\11---\9---7---5-------|
D--------------------------------------------------|
A-(4:36)-------------------------------------------|
E--------------------------------------------------|

E--------5-----------5---5-----|-------------------|
B-pbr------5--b-r--------------|--b-r--------------|
G-(9)7-5-----7(9)7p5—5(6)5(6)--|-4(6)4-2-2-44-2----|
D---------------------b---bh---|-------fades out---|
A-(4:41)-----------------------|-(4:45)------------|
E------------------------------|-------------------|
            
Submit corrections

↑ Back to top | Tablatures and chords for acoustic guitar and electric guitar, ukulele, drums are parodies/interpretations of the original songs. You may use it for private study, scholarship, research or language learning purposes only