Home » M » Men At Work »

Men At Work - Overkill Tabs

Artists:  A B C D E F G H I J K L M N O P Q R S T U V W X Y Z # 

Overkill Tabs
Version #1
Men At Work


Copy URL
-------------------------------------------------------------------------------
                             OVERKILL – MEN AT WORK
-------------------------------------------------------------------------------

Tuning: EADGBE
VERSE
E|--0-0-0-0--0--0-0-0-0--0-----0-0-0-0--0--0-0-0-0—0-------------------------|
B|---------------------------------------------------------------------------|
G|---------------------------------------------------------------------------|
D|-9---9---9---9---9---9------7---7---7---7---7---7--------------------------|
A|-7---7---7---6---6---6------5---5---5---4---4---4--------------------------|
E|---------------------------------------------------------------------------|
BRIDGE PART 1 X 2
E|-4--4--4--4------2--2--2--2------------------------------------------------|
B|-5--5--5--5------4--4--4--4------------------------------------------------|
G|-6--6--6--6------4--4--4--4------------------------------------------------|
D|-6--6--6--6------4--4--4--4------------------------------------------------|
A|-4--4--4--4------2--2--2--2------------------------------------------------|
E|---------------------------------------------------------------------------|
BRIDGE PART 2 X 1
e|-4--4--4--4------5--5--5--5------3--3--3--3--------------------------------|
B|-4--4--4--4------5--5--5--5------5--5--4--4--------------------------------|
G|-6--6--5--5------6--6--6--6------4--4--4--4--------------------------------|
D|-6--6--6--6------7--7--7--7------4--4--4--4--------------------------------|
A|-6--6--6--6------7--7--7--5------3--3--3--3--------------------------------|
E|-4--4--4--4------5--5--5--5------------------------------------------------|
            
Submit corrections

↑ Back to top | Tablatures and chords for acoustic guitar and electric guitar, ukulele, drums are parodies/interpretations of the original songs. You may use it for private study, scholarship, research or language learning purposes only