Home » M » Men At Work »

Men At Work - Be Good Johnny Tabs

Artists:  A B C D E F G H I J K L M N O P Q R S T U V W X Y Z # 

Be Good Johnny Tabs
Version #1
Men At Work


Copy URL
[Intro:] Fade In
                                                                                     Play intro motif 2x's
   D                         G                         C6sus2/D                  G            D
 E|-------------------------|------7------------7-----|------8------------8-----|------7------------------|
 B|7--x--10--x--7--x--10--7-|8--x--8---x--8--x--8---8-|10-x--10--x--10-x--10--10|8--x--8---x--7--x--10--7-|
 G|7--x--7---x--7--x--7---7-|7--x------x--7--x------7-|7--x------x--7--x------7-|7--x--7---x--7--x--7---7-|
 D|-------------------------|-------------------------|-------------------------|-------------------------|
 A|-------------------------|-------------------------|-------------------------|-------------------------|
 E|-------------------------|-------------------------|-------------------------|-------------------------|
  |Pluck ------------------> ------------------------> ------------------------> ------------------------>  
  |w/Delay at approx: 275 ms
  |
  |Gtr 2                                                                                                C5
 E|-------------------------|-------------------------|-------------------------|-------------------------|
 B|-------------------------|-------------------------|-------------------------|-------------------------|
 G|-------------------------|-------------------------|-------------------------|-------------------------|
 D|-------------------------|-------------------------|-------------------------|-----------------------5/|
 A|-------------------------|-------------------------|-------------------------|-----------------------3/|
 E|-------------------------|-------------------------|-------------------------|-------------------------|
                                                                                  Gtr 2 enters after 2nd x 
                              
***********************************************************************************************************
   D5                        C                         G                         C               Play 2x's
 E|-------------------------|-------------------------|-------------------------|-------------------------|
 B|-------------------------|-------------------------|-------------------------|-------------------------|
 G|-------------------------|-------------------------|-------------------------|-------------------------|
 D|7----------------------3-|-------------------------|-------------------------|---------------------(5)/|
 A|5------------------------|3------------------------|2---------2--------2-----|3---------3--------3-(3)/|
 E|-------------------------|-------------------------|--------3--------3-------|--------3--------3-------|
   w/Overdrive                                                                     

***********************************************************************************************************
[Verse:]
 *Superimposed keyboard notes
 *(A)                       (G)                       (F#)                       (G)
 E|-------------------------|-------------------------|-------------------------|-------------------------|
 B|-------------------------|-------------------------|-------------------------|-------------------------|
 G|-------------7-----------|-------------7-----------|-------------7-----------|-------------7-----------|
 D|7------------0-----------|0------------0-----------|0------------0-----------|0------------0---------5/|
 A|5------------------------|5------------------------|5------------------------|5----------------------3/|
 E|-------------------------|-------------------------|-------------------------|-------------------------|
   1.  Skip  de skip             Up  the  road____         Off  to  school__ you go.
   2.          Are you going to play football this year, John?                   No?                 Oh...

 E|-------------------------|-------------------------|-------------------------|-------------------------|
 B|-------------------------|-------------------------|-------------------------|-------------------------|
 G|-------------7-----------|-------------7-----------|-------------7-----------|-------------7-----------|
 D|7------------0-----------|0------------0-----------|0------------0-----------|0------------0-----------|
 A|5------------------------|5------------------------|5------------------------|5------------------------|
 E|-------------------------|-------------------------|-------------------------|-------------------------|
1. Don't you be a bad boy Johnny -------  Don't you slip up          Or play the fool 
2. You must be gonna play cricket this year then, are you John?                  Nah!         Nah!

 E|-------------------------|-------------------------|-------------------------|-------------------------|
 B|-------------------------|-------------------------|-------------------------|-------------------------|
 G|-------------7-----------|-------------7-----------|-------------7-----------|-------------7-----------|
 D|0------------0-----------|0------------0-----------|0------------0-----------|0------------0-----------|
 A|5------------------------|5------------------------|5------------------------|5------------------------|
 E|-------------------------|-------------------------|-------------------------|-------------------------|
1.    Oh   no   Ma              Oh   no   Da             I'll be your  golden boy
2. Nah!               Heh!   Boy, you sure are a funny kid, Johnny.      But I like you!                So

 E|-------------------------|-------------------------|-------------------------|-------------------------|
 B|-------------------------|-------------------------|-------------------------|-------------------------|
 G|-------------7-----------|-------------7-----------|-------------7-----------|-------------7-----------|
 D|0------------0-----------|0------------0-----------|0------------0-----------|0------------0-----------|
 A|5------------------------|5------------------------|5------------------------|5------------------------|
 E|-------------------------|-------------------------|-------------------------|-------------------------|
1.    I  will  obey             ev'ry    golden rule____ 
2. Tell me,                  what kind of boy are you John?

***********************************************************************************************************
[Pre Chorus]
   F                         G                         F                         G
 E|-------------------------|-------------------------|-------------------------|-------------------------|
 B|------------0------------|------------0------------|------------0------------|------------0------------|
 G|------------2------------|------------4------------|------------2------------|------------4------------|
 D|--------3-------3--------|--------5----------------|--------3-------3--------|--------5----------------|
 A|----3---------------3----|----5--------------------|----3---------------3----|----5--------------------|
 E|1------------------------|3------------------------|1------------------------|3------------------------|
1.           Get told by the teacher                                  not to day-dream
2.           I only like dreaming                                     all the day long
3.           I only like dreaming                                     all the day long
   F                         G
 E|-------------------------|-------------------------||
 B|------------0------------|------------0------------||
 G|------------2------------|------------4------------||
 D|--------3-------3--------|--------5----------------||
 A|----3---------------3----|----5--------------------||
 E|1------------------------|3------------------------||
1.               Told by my mother                                  
2.          Where no one is screaming
3.          Where no one is screaming [Proceed to Bridge]
***********************************************************************************************************
[Chorus]
    D                         G                         C6sus2/D                  G            D
 E|-------------------------|------7------------7-----|------8------------8-----|------7------------------|
 B|7--x--10--x--7--x--10--7-|8--x--8---x--8--x--8---8-|10-x--10--x--10-x--10--10|8--x--8---x--7--x--10--7-|
 G|7--x--7---x--7--x--7---7-|7--x------x--7--x------7-|7--x------x--7--x------7-|7--x--7---x--7--x--7---7-|
 D|-------------------------|-------------------------|-------------------------|-------------------------|
 A|-------------------------|-------------------------|-------------------------|-------------------------|
 E|-------------------------|-------------------------|-------------------------|-------------------------|
  |      Be good!     Be good!     Be good!     Be good!      Be good!     Be good! etc.                  |
  |Be good!                  Be good!                  Be good!                  Johnny!___________       |
  |                                                                                                       |
 E|-------------------------|-------------------------|-------------------------|-------------------------|
 B|-------------------------|-------------------------|-------------------------|-------------------------|
 G|-------------------------|-------------------------|-------------------------|-------------------------|
 D|7------------------------|-------------------------|7------------------------|-----------------------5/|
 A|5------------------------|-------------------------|5------------------------|-----------------------3/|
 E|-------------------------|-------------------------|-------------------------|-------------------------|

    D                         G                         C6sus2/D                  G            D
 E|-------------------------|------7------------7-----|------8------------8-----|------7------------------|
 B|7--x--10--x--7--x--10--7-|8--x--8---x--8--x--8---8-|10-x--10--x--10-x--10--10|8--x--8---x--7--x--10--7-|
 G|7--x--7---x--7--x--7---7-|7--x------x--7--x------7-|7--x------x--7--x------7-|7--x--7---x--7--x--7---7-|
 D|-------------------------|-------------------------|-------------------------|-------------------------|
 A|-------------------------|-------------------------|-------------------------|-------------------------|
 E|-------------------------|-------------------------|-------------------------|-------------------------|
  |      Be good!     Be good!     Be good!     Be good!      Be good!     Be good! Be good! Be good!_____|
  |Be good!                  Be good!                  Be good!                  Johnny!___________       |
  |                                                                                                       |
 E|-------------------------|-------------------------|-------------------------|-------------------------|
 B|-------------------------|-------------------------|-------------------------|-------------------------|
 G|-------------------------|-------------------------|-------------------------|-------------------------|
 D|7------------------------|(7)----------------------|7------------------------|-------------------------|
 A|5------------------------|(5)----------------------|5------------------------|-------------------------|
 E|-------------------------|-------------------------|-------------------------|-------------------------|
                                                                        After 1st time, proceed to Verse 2.
                                                                        After 2nd time, continue on...
***********************************************************************************************************
   D5                        C                         G                         C               Play 2x's
 E|-------------------------|-------------------------|-------------------------|-------------------------|
 B|-------------------------|-------------------------|-------------------------|-------------------------|
 G|-------------------------|-------------------------|-------------------------|-------------------------|
 D|7----------------------3-|-------------------------|-------------------------|-------------------------|
 A|5------------------------|3------------------------|2---------2--------2-----|3---------3--------3-----|
 E|-------------------------|-------------------------|--------3--------3-------|--------3--------3-------|

   Dsus4
 E|-------------3-----------|-------------------------||
 B|---------3---------------|-------------------------||
 G|----2---------------2--2-|2--2--2--2--2--2--2--2---||
 D|0-------------------0--0-|0--0--0--0--0--0--0--0---||
 A|-------------------------|-------------------------||
 E|-------------------------|-------------------------|| Continue to Pre-Chorus 3

***********************************************************************************************************
[Bridge]

 E|-------------------------|---12--------------------|-------------------------|-------------------------|
 B|----------------------12-|-------------------------|---7---------------------|-------------------------|
 G|----------------12-------|-------------------------|---------7---------------|-------------------------|
 D|---------12--------------|-------------------------|----------------7--------|-------------------------|
 A|---12--------------------|-------------------------|-------------------------|---12--------------------|
 E|-------------------------|-------------------------|-----------------------5-|-------------------------|
  |N.H.                                                                                                   |
  |                                                                                                       |
 E|-------------------------|-------------------------|-------------------------|-------------------------|
 B|-------------------------|-------------------------|-------------------------|-------------------------|
 G|7--------7---------------|7--------7---------------|7--------7---------------|7--------7---------------|
 D|0--------0---------------|0--------0---------------|0--------0---------------|0--------0---------------|
 A|---5--5------5--5--5--5--|---5--5------5--5--5--5--|---5--5------5--5--5--5--|---5--5------5--5--5--5--|
 E|-------------------------|-------------------------|-------------------------|-------------------------|
   w/Slight PM.

 E|-------------------------|-------------------------|-------------------------|-------------------------|
 B|-------------------------|-------------------------|---7---------------------|-------------------------|
 G|-------------12----------|-------------------------|---------7-------------5-|---3-----5------3--------|
 D|---------12--------------|-------------------------|-------------7---------5-|---3-----5------3--------|
 A|---12--------------------|-------------------------|-------------------------|-------------------------|
 E|-------------------------|-------------------------|-------------------------|-------------------------|
  |N.H.                                                                                                   |
  |                                                                                                       |
 E|-------------------------|-------------------------|-------------------------|-------------------------|
 B|-------------------------|-------------------------|-----------------------17|---15----17-----15-------|
 G|7--------7---------------|7--------7---------------|7--------7-------------17|---15----17-----15-------|
 D|0--------0---------------|0--------0---------------|0--------0---------------|-------------------------|
 A|---5--5------5--5--5--5--|---5--5------5--5--5--5--|---5--5------5--5--5-----|-------------------------|
 E|-------------------------|-------------------------|-------------------------|-------------------------|

         [Drum Fill]
 E|-------------------------||
 B|-------------------------||
 G|-------------------------||
 D|-----------------------7\||
 A|-----------------------5\||
 E|-------------------------||
            Fade in
***********************************************************************************************************
[Outro Chorus]
    D                         G                        C6sus2/D                  G            D
 E|-------------------------|------7------------7-----|------8------------8-----|------7------------------|
 B|7--x--10--x--7--x--10--7-|8--x--8---x--8--x--8---8-|10-x--10--x--10-x--10--10|8--x--8---x--7--x--10--7-|
 G|7--x--7---x--7--x--7---7-|7--x------x--7--x------7-|7--x------x--7--x------7-|7--x--7---x--7--x--7---7-|
 D|-------------------------|-------------------------|-------------------------|-------------------------|
 A|-------------------------|-------------------------|-------------------------|-------------------------|
 E|-------------------------|-------------------------|-------------------------|-------------------------|
  |      Be good!     Be good!     Be good!     Be good!      Be good!     Be good! etc.                  |
  |Be good!                  Be good!                  Be good!                  Johnny!___________       |
  |Gtr 2                                                                                                  |
 E|-------------------------|-------------------------|-------------------------|-------------------------|
 B|3------------------------|-------------------------|-------------------------|-------------------------|
 G|2------------------------|-------------------------|-------------------------|-------------------------|
 D|0------------------------|-------------------------|-------------------------|-------------------------|
 A|0------------------------|-------------------------|-------------------------|-------------------------|
 D|0------------------------|-------------------------|-------------------------|-------------------------|

    D                         G                         C6sus2/D                  G            D
 E|-------------------------|------7------------7-----|------8------------8-----|------7------------------|
 B|7--x--10--x--7--x--10--7-|8--x--8---x--8--x--8---8-|10-x--10--x--10-x--10--10|8--x--8---x--7--x--10--7-|
 G|7--x--7---x--7--x--7---7-|7--x------x--7--x------7-|7--x------x--7--x------7-|7--x--7---x--7--x--7---7-|
 D|-------------------------|-------------------------|-------------------------|-------------------------|
 A|-------------------------|-------------------------|-------------------------|-------------------------|
 D|-------------------------|-------------------------|-------------------------|-------------------------|
  |      Be good!     Be good!     Be good!     Be good!      Be good!     Be good! Be good! Be good!_____|
  |Be good!                  Be good!                  Be good!                  Johnny!___________       |
  |Gtr 2                                                                                                  |
 E|-------------------------|-------------------------|-------------------------|-------------------------|
 B|-------------------------|-------------------------|-------------------------|-------------------------|
 G|2------------------------|-------------------------|-------------------------|-------------------------|
 D|0------------------------|-------------------------|-------------------------|-------------------------|
 A|0------------------------|-------------------------|-------------------------|-------------------------|
 D|0------------------------|-------------------------|-------------------------|-------------------------|

***********************************************************************************************************
    D                         G                        C6sus2/D                  G            D
 E|-------------------------|------7------------7-----|------8------------8-----|------7------------------|
 B|7--x--10--x--7--x--10--7-|8--x--8---x--8--x--8---8-|10-x--10--x--10-x--10--10|8--x--8---x--7--x--10--7-|
 G|7--x--7---x--7--x--7---7-|7--x------x--7--x------7-|7--x------x--7--x------7-|7--x--7---x--7--x--7---7-|
 D|-------------------------|-------------------------|-------------------------|-------------------------|
 A|-------------------------|-------------------------|-------------------------|-------------------------|
 E|-------------------------|-------------------------|-------------------------|-------------------------|
  |      Be good!     Be good!     Be good!     Be good!      Be good!     Be good! etc.                  |
  |Be good!                  Be good!                  Be good!                  Johnny!___________       |
  |Gtr 2                                                                                                  |
 E|-------------------------|-------------------------|-------------------------|-------------------------|
 B|3------------------------|-------------------------|3------------------------|3------------------------|
 G|2------------------------|-------------------------|2------------------------|2------------------------|
 D|0------------------------|-------------------------|0------------------------|0------------------------|
 A|0------------------------|-------------------------|0------------------------|0------------0-----------|
 D|0------------------------|-------------------------|-------------------------|-------------------------|
  |                                                                                                       |
  |Gtr 3                                                                                                  |
 E|-------------------------|-------------------------|-------------------------|-------------------------|
 B|-------------------------|-------------------------|-------------------------|-------------------------|
 G|-------------------------|-------------------------|-------------------------|-------------------------|
 D|7----------------------3-|-------------------------|-------------------------|-------------------------|
 A|5------------------------|3------------------------|2---------2--------2-----|3---------3--------3-----|
 E|-------------------------|-------------------------|--------3--------3-------|--------3--------3-------|
   Gtr 3 is subtle in the mix.

    D                         G                        C6sus2/D                  G            D
 E|-------------------------|------7------------7-----|------8------------8-----|------7------------------|
 B|7--x--10--x--7--x--10--7-|8--x--8---x--8--x--8---8-|10-x--10--x--10-x--10--10|8--x--8---x--7--x--10--7-|
 G|7--x--7---x--7--x--7---7-|7--x------x--7--x------7-|7--x------x--7--x------7-|7--x--7---x--7--x--7---7-|
 D|-------------------------|-------------------------|-------------------------|-------------------------|
 A|-------------------------|-------------------------|-------------------------|-------------------------|
 E|-------------------------|-------------------------|-------------------------|-------------------------|
  |      Be good!     Be good!     Be good!     Be good!      Be good!     Be good! etc.                  |
  |Be good!                  Be good!                  Be good!                  Johnny!___________       |
  |Gtr 2                                                                                                  |
 E|-------------------------|-------------------------|-------------------------|-------------------------|
 B|3------------------------|-------------------------|3------------------------|-------------------------|
 G|2------------------------|-------------------------|2------------------------|-------------------------|
 D|0------------------------|-------------------------|0------------------------|-------------------------|
 A|0------------------------|-------------------------|0------------------------|-------------------------|
 D|0------------------------|-------------------------|-------------------------|-------------------------|
  |                                                                                                       |
  |Gtr 3                                                                                                  |
 E|-------------------------|-------------------------|-------------------------|-------------------------|
 B|-------------------------|-------------------------|-------------------------|-------------------------|
 G|-------------------------|-------------------------|-------------------------|-------------------------|
 D|7----------------------3-|-------------------------|-------------------------|-------------------------|
 A|5------------------------|3------------------------|2---------2--------2-----|3---------3--------3-----|
 E|-------------------------|-------------------------|--------3--------3-------|--------3--------3-------|

***********************************************************************************************************
    D                         G                        C6sus2/D                  G            D 
 E|-------------------------|------7------------7-----|------8------------8-----|------7------------------|
 B|7--x--10--x--7--x--10--7-|8--x--8---x--8--x--8---8-|10-x--10--x--10-x--10--10|8--x--8---x--7--x--10--7-|
 G|7--x--7---x--7--x--7---7-|7--x------x--7--x------7-|7--x------x--7--x------7-|7--x--7---x--7--x--7---7-|
 D|-------------------------|-------------------------|-------------------------|-------------------------|
 A|-------------------------|-------------------------|-------------------------|-------------------------|
 E|-------------------------|-------------------------|-------------------------|-------------------------|
  |      Be good!     Be good!     Be good!     Be good!      Be good!     Be good! etc.                  |
  |Be good!                  Be good!                  Be good!                  Johnny!___________       |
  |                                                                                                       |
 E|-------------------------|-------------------------|-------------------------|-------------------------|
 B|-------------------------|-------------------------|-------------------------|-------------------------|
 G|-------------------------|-------------------------|-------------------------|-------------------------|
 D|7----------------------3-|-------------------------|-------------------------|-------------------------|
 A|5------------------------|3------------------------|2---------2--------2-----|3---------3--------3-----|
 E|-------------------------|-------------------------|--------3--------3-------|--------3--------3-------|


    D                         G                        C6sus2/D                  G            D 
 E|-------------------------|------7------------7-----|------8------------8-----|------7------------------|
 B|7--x--10--x--7--x--10--7-|8--x--8---x--8--x--8---8-|10-x--10--x--10-x--10--10|8--x--8---x--7--x--10--7-|
 G|7--x--7---x--7--x--7---7-|7--x------x--7--x------7-|7--x------x--7--x------7-|7--x--7---x--7--x--7---7-|
 D|-------------------------|-------------------------|-------------------------|-------------------------|
 A|-------------------------|-------------------------|-------------------------|-------------------------|
 E|-------------------------|-------------------------|-------------------------|-------------------------|
  |      Be good!     Be good!     Be good!     Be good!      Be good!     Be good! etc.                  |
  |Be good!                  Be good!                  Be good!                  Johnny!___________       |
  |                                                                                                       |
 E|-------------------------|-------------------------|-------------------------|-------------------------|
 B|-------------------------|-------------------------|-------------------------|-------------------------|
 G|-------------------------|-------------------------|-------------------------|-------------------------|
 D|-----------------------3-|-------------------------|-------------------------|-------------------------|
 A|5------------------------|3------------------------|2---------2--------2-----|3---------3--------3-----|
 E|-------------------------|-------------------------|--------3--------3-------|--------3--------3-------|

   Free Time (birdseye)
   Dsus4
 E|---------------3-----------------------------------||
 B|----------3----3-----------------------------------||
 G|-----2----2----------------------------------------||
 D|0----0---------------------------------------------||
 A|0--------------------------------------------------||
 E|---------------------------------------------------||            
Submit corrections

↑ Back to top | Tablatures and chords for acoustic guitar and electric guitar, ukulele, drums are parodies/interpretations of the original songs. You may use it for private study, scholarship, research or language learning purposes only