Home » M » Melvins »

Melvins - Lizzy Bass

Artists:  A B C D E F G H I J K L M N O P Q R S T U V W X Y Z # 

Lizzy Bass

(ver. 2) Click to play this song!
Melvins
Band:The Melvins


Album:Houdini


Tuning:Standard


--------Legend--------
 (h)Hammer-on
 (X)Mute the note
 (~)Let note ring out
----------------------


Intro(Bass comes in at 00:36)
G---------------|
D---------------|
A-0~~~~~~3~~~~~~|
E---------------|

Riff 1
G-----------------------------|-------------------------------|
D-----------------------------|-------------------------------|
A-0~~~~~~3~~~~~~3-3-3-----3---|-0~~~~~~3~~~~~~3-3-3-4h5---5---|
E---------------------3-------|-------------------------------|

Riff 2
G-------------------------------|
D-------------------------------|(3X)
A---------5--4---4-X--0-4---4-4-|
E-0-0-0-0-----------------------|

G-------------------------------|
D-------------------------------|(1X)
A---------5--4---4-X--0-4~~~~~~~|
E-0-0-0-0-----------------------|
            
Submit corrections

↑ Back to top | Tablatures and chords for acoustic guitar and electric guitar, ukulele, drums are parodies/interpretations of the original songs. You may use it for private study, scholarship, research or language learning purposes only