» » »

Melvins - Bar X The Rocking M Tabs

Artists:  A B C D E F G H I J K L M N O P Q R S T U V W X Y Z # 

Bar X The Rocking M Tabs

(ver. 1) Click to play this song!
Melvins
 Rating:
4/5 (4 votes)

 Bar X The Rocking M lessons Tabs too difficult? Try these video lessons and learn fast
 
                Tuning: Drop D

Intro     
d |-5---7---7---7-7-7-7-10--5---4---5---7---7---7-13----12--13--8
a |-5---7---7---7-7-7-7-10--5---4---5---7---7---7-13----12--13--8
D |-5---7---7---7-7-7-7-10--5---4---5---7---7---7-13----12--13--8
    

d |-5---7---7---7-7-7-7-8---4/5-5---10--9---8/-------------------
a |-5---7---7---7-7-7-7-8---4/5-5---10--9---8/-------------------
D |-5---7---7---7-7-7-7-8---4/5-5---10--9---8/------------------- Reapeat once
                                               


Verse
d -0-h-2-2-2-2-2-2---2-2-----2-2-2-3---3---3---8-------8---8---8/
a -0-h-2-2-2-2-2-2---2-2-----2-2-2-3---3---3---8-------8---8---8/
D -0-h-2-2-2-2-2-2---2-2-----2-2-2-3---3---3---8-------8---8---8/

g |---------------------------------4-4-4-4-4-4-4-4-4-4-4-0------
d |-0-h-2---2---2-2-2-2-2---2-2-3-2-4-4-4-4-4-4-4-4-4-4-4-0------
a |-0-h-2---2---2-2-2-2-2---2-2-3-2-2-2-2-2-2-2-2-2-2-2-2-0------
D |-0-h-2---2---2-2-2-2-2---2-2-3-2------------------------------

d |-0-h-2-2-2-2-2-2---2-2-----2-2-2-3---3---3---8-------8---8---8/
a |-0-h-2-2-2-2-2-2---2-2-----2-2-2-3---3---3---8-------8---8---8/
D |-0-h-2-2-2-2-2-2---2-2-----2-2-2-3---3---3---8-------8---8---8/

d |-0-h-2---2---2-2-2-2-3---2---3---3---3---3---3-3-3-3-3---2--3- 
a |-0-h-2---2---2-2-2-2-3---2---3---3---3---3---3-3-3-3-3---2--3- 
D |-0-h-2---2---2-2-2-2-3---2---3---3---3---3---3-3-3-3-3---2--3-                     
   
g |---------------------------------8----------------------------
d |-2---2---2---2-2-2-3-----2---3---8---let ring-----------------
a |-2---2---2---2-2-2-3-----2---3---6----------------------------
D |-2---2---2---2-2-2-3-----2---3--------------------------------


During the trumpet solo bit
d |-7-7-7-7-7-7-7-7-7-7-7b(9)-------7-7-7-7-7-7-7-7-7-7-7b(9)----
a |-7-7-7-7-7-7-7-7-7-7-7b(9)-------7-7-7-7-7-7-7-7-7-7-7b(9)----
D |-7-7-7-7-7-7-7-7-7-7-7b(9)-------7-7-7-7-7-7-7-7-7-7-7b(9)----                                                                  
d |-5---7---10--7---7-7-5---7---10--7---5------------------------
a |-5---7---10--7---7-7-5---7---10--7---5---let ring------------- 
D |-5---7---10--7---7-7-5---7---10--7---5------------------------
                   

Repeat the verse but end on this
d|-7-/-
a|-7-/-
D|-7-/-
            
Submit corrections


        Bar X The Rocking M lessons Hard to play? Try these video lessons and learn fast Bar X The Rocking M lessons
        
↑ Back to top | Tablatures and chords for acoustic guitar and electric guitar, ukulele, drums are parodies/interpretations of the original songs. You may use it for private study, scholarship, research or language learning purposes only