Home » M » Meiko »

Meiko - Under My Bed Tabs

Artists:  A B C D E F G H I J K L M N O P Q R S T U V W X Y Z # 

Under My Bed Tabs

(ver. 1) Click to play this song!
Meiko
-------------------------------------------------------------------------------
-------------------------------------------------------------------------------

Tuning: standard capo 2

e|-----0-------0-------0-------0--------------------|
B|-----0-------0-------0-------0--------------------|
G|-----1-------3-------6-------1--------------------|
D|-----2-------4-------7-------2--------------------|
A|-----2-------4-------7-------2--------------------|
E|-0-0-0---2-2-2---5-5-5---0-0-0--------------------|

I always love having the lyrics at the end so here they are!

Now my eyes are wide open
Now that every thing's been stolen
And I'm here to get it back from you
See I ain't wasting no more time
gotta take back whats mine
What else am i suppose to do

Here I am
with my heart on the floor
and my love out the door
you should be knocking
but there it goes
I got nothing to show for 
except pictures i posed for
but i keep them in a box under my bed

I told you time and again
that you'd never win
I told you time and again
but you keep doing the same old things
when i thought you would change
I told you time and again

Here i am
with my heart on the floor
and my love out the door
you should be knocking
but there it goes
i got nothing to show for 
except pictures i posed for
but i keep them in a box under my bed

oh, ooooo, oh oh
ooooo, oh oh
ooooo, oh oh

oh, ooooo, oh oh
ooooo, oh oh
ooooo, oh oh

Here i am
with my heart on the floor
and my love out the door
there it goes
i got nothing to show for
except the pictures i posed for

Here i am
with my heart on the floor
and my love out the door
you should be knocking
but there it goes
i got nothing to show for 
except pictures i posed for
but i keep them in a box under my bed

oh, ooooo, oh oh
ooooo, oh oh
ooooo, oh oh
            
Submit corrections

↑ Back to top | Tablatures and chords for acoustic guitar and electric guitar, ukulele, drums are parodies/interpretations of the original songs. You may use it for private study, scholarship, research or language learning purposes only