» » »

Meg And Dia - Strawberry Waltz Tabs

Artists:  A B C D E F G H I J K L M N O P Q R S T U V W X Y Z # 

Strawberry Waltz Tabs

(ver. 1) Click to play this song!
Meg And Dia
 Rating:
4/5 (4 votes)

 Strawberry Waltz lessons Tabs too difficult? Try these video lessons and learn fast
 
                comment or leave anything if u have any info
read the discriptions to know when to pull off or palmmute
down here on the chart
_| |_
\   /
 \ /
  V
Tuning: Standard

 / = slide up
 \ = slide down
 h = hammer-on
 p = pull-off
 ~ = vibrato
 + = harmonic
 x = Mute note
 . = Palm mute

intro:
e|-2---2-2-2-2----0---0-0-0-0----2-----------------------------|
B|-3---3-3-3-3----3---3-3-3-3----1----7h8p7-8/10-8-7-----------|
G|-2---2-2-2-2----2---2-2-2-2----2-----------------------------|
D|-0---0-0-0-0----0---0-0-0-0----0-----------------------------|
A|-------------------------------------------------------------|
E|-------------------------------------------------------------|
      . . . .         . . . .

Or if u want u can do it this way
e|--2h3-2-3/5--3-2---------------------------|
B|-------------------------------------------|
G|-------------------------------------------|
D|-------------------------------------------|
A|-------------------------------------------|
E|-------------------------------------------|

e|-0--0--0--0--0-0-0-0-0--0-0-0-0-0-0-0-0---------|
B|-10-10-10-0--8-8-8-8-0--7-7-7-0-5-5-5-5---------|
G|-9--9--9--9--9-9-9-9-9--7-7-7-7-7-7-7-7---------|
D|-9--9--9--9--9-9-9-9-9--7-7-7-7-7-7-7-7---------|
A|------------------------------------------------|
E|------------------------------------------------|

e|-2-2-2-2-2h3--3-3-3-3p2-2-2-2-2~~----------------------------|
B|-3-3-3-3-3----3-3-3-3---3-3-3-3~~----------------------------|
G|-2-2-2-2-2----2-2-2-2---2-2-2-2~~----------------------------|
D|-0-0-0-0-0----0-0-0-0---0-0-0-0~~----------------------------|
A|-------------------------------------------------------------|
E|-------------------------------------------------------------|

VERSE:1(let chords ring)
e|-2~--0~--0~--0~----------------|
B|-3~--3~--5~--1~----------------|
G|---------3~--3~----------------|
D|-------------------------------|
A|-------------------------------|
E|-------------------------------|
Disreguard what we know. Well your voice is so low

e|------0----------1--0----------2p0-----|
B|---------3-----------------3-------3---|
G|---0----------0----------2---2---------|
D|-----------------------0---------------|
A|------------1--------------------------|
E|-3-------------------------------------|
Will I stay? Will I go? This evening.

(let chords ring)
e|-2~--0~--0~--0~----------------|
B|-3~--3~--5~--1~----------------|
G|---------3~--3~----------------|
D|-------------------------------|
A|-------------------------------|
E|-------------------------------|
See the light on the rail. Reflect red off the tail.


e|------0----------1--0----------2p0-----|
B|---------3-----------------3-------3---|
G|---0----------0----------2---2---------|
D|-----------------------0---------------|
A|------------1--------------------------|
E|-3-------------------------------------|
Lights in front of us. Slowly leading..

The tabs above I give credit to superdinoninja so I thought I would finish the second verse :]
sorry if it's wrong but I tried check it out for yoursevles :]

 Chorus 1
e|---------------5---------------------------------5--------------5-------|
B|-------------------------------5--------------------7------7------------|
G|--------6----------------6-----6-----------7-----------7-----7----------|
D|-----7-----7----------7-----7-----------7-----7----------7--------------|
A|--0---------------0-0----------------5----------------------------------|
E|------------------------------------------------------------------------|
   He---ed---- my---------- warning--------- my----------- darl-----------|ing

e|-------------------------------------------|
B|-------------------------------------------|
G|----4--44--4-----2--22--2------------------|
D|----4--44--4-----2--22--2--------5~--------|
A|----2--22--2-----0--00--0--------5~--------|
E|---------------------------------3~--------|
   Don't let -------the tw--ilight ----------|drown

e|---------------5---------------------------------5--------------5-------|
B|-------------------------------5--------------------7------7------------|
G|--------6----------------6-----6-----------7-----------7-----7----------|
D|-----7-----7----------7-----7-----------7-----7----------7--------------|
A|--0---------------0-0----------------5----------------------------------|
E|------------------------------------------------------------------------|
--Fe------el ---the shore-------line --------thri-------------------------|ving

e|-------------------------------------------|
B|-------------------------------------------|
G|----4--44--4-----2--22--2------------------|
D|----4--44--4-----2--22--2--------5~--------|
A|----2--22--2-----0--00--0--------5~--------|
E|---------------------------------3~--------|
    Turn around----Turn around---------------|Turn around

Verse:2
its alot like the intro except palm mute
e|--2-2-2-2-2-2---0-0-0-0-0-0---0-0-0-0-0-0---0-0-0-0-0-0---|
B|--3-3-3-3-3-3---3-3-3-3-3-3---5-5-5-5-5-5---1-1-1-1-1-1---|
G|------------------------------3-3-3-3-3-3---3-3-3-3-3-3---|
D|----------------------------------------------------------|
A|----------------------------------------------------------|
E|----------------------------------------------------------|
    . . . . . .   . . . . . .   . . . . . .   . . . . . .
   Well we pull of the road     Sinking slow, sinking slow

e|------0----------1--0----------2p0-----|
B|---------3-----------------3-------3---|
G|---0----------0----------2---2---------|
D|-----------------------0---------------|
A|------------1--------------------------|
E|-3-------------------------------------|
     And the gravel recedes into dust

e|--2-2-2-2-2-2---0-0-0-0-0-0---0-0-0-0-0-0---0-0-0-0-0-0---|
B|--3-3-3-3-3-3---3-3-3-3-3-3---5-5-5-5-5-5---1-1-1-1-1-1---|
G|------------------------------3-3-3-3-3-3---3-3-3-3-3-3---|
D|----------------------------------------------------------|
A|----------------------------------------------------------|
E|----------------------------------------------------------|
    . . . . . .   . . . . . .   . . . . . .   . . . . . .
     And the unfaithful sun      Went to burn all alone
e|------0----------1--0----------2p0-----|
B|---------3-----------------3-------3---|
G|---0----------0----------2---2---------|
D|-----------------------0---------------|
A|------------1--------------------------|
E|-3-------------------------------------|
Just to love, just for love Just for plain simple love

chorus:2
e|---------------5---------------------------------5--------------5-------|
B|-------------------------------5--------------------7------7------------|
G|--------6----------------6-----6-----------7-----------7-----7----------|
D|-----7-----7----------7-----7-----------7-----7----------7--------------|
A|--0---------------0-0----------------5----------------------------------|
E|------------------------------------------------------------------------|
   He---ed---- my---------- warning--------- my----------- darl-----------|ing

e|-------------------------------------------|
B|-------------------------------------------|
G|----4--44--4-----2--22--2------------------|
D|----4--44--4-----2--22--2--------5~--------|
A|----2--22--2-----0--00--0--------5~--------|
E|---------------------------------3~--------|
   Don't let -------the tw--ilight ----------|drown

e|---------------5---------------------------------5--------------5-------|
B|-------------------------------5--------------------7------7------------|
G|--------6----------------6-----6-----------7-----------7-----7----------|
D|-----7-----7----------7-----7-----------7-----7----------7--------------|
A|--0---------------0-0----------------5----------------------------------|
E|------------------------------------------------------------------------|
--Fe------el ---the shore-------line --------thri-------------------------|ving

e|----------------------------------------------------------|
B|----------------------------------------------------------|
G|----4--44--4-----2--22--2---------------------------------|
D|----4--44--4-----2--22--2-----5-5-5-5-5-5--5-5-5-5-5------|
A|----2--22--2-----0--00--0-----5-5-5-5-5-5--5-5-5-5-5------|
E|------------------------------3-3-3-3-3-3--3-3-3-3-3------|
                                . . . . . .
     Turn around----Turn around------Turn around

Bridge:
e|---------------------------------------------------------------|
B|---------------------------------------------------------------|
G|--4~--4-4-4-4--4~---4-4-4-4--4-4--4-4-4-4--------0-------------|
D|--4~--4-4-4-4--4p2--4-4-4-4--2h4--4-4-4-4----2h4---4-2-0-------|
A|--2~--2-2-2-2--2~---2-2-2-2--2-2--2-2-2-2----------------------|
E|---------------------------------------------------------------|
        . . . .     . . . .       . . . .
   Oh~~~   Oh~~oh  oh~~~  Oh~~oh
e|----------------------------------------------------------------|
B|---3-----5-------7-------8~-8-8-8-8---3---5---7-----8~-8-8-8-8--|
G|------0------0-------0---0~-0-0-0-0-----0---0---0---0~-0-0-0-0--|
D|----------------------------------------------------------------|
A|----------------------------------------------------------------|
E|----------------------------------------------------------------|
                              . . . .                    . . . .
 Outro
e|-------------------------------------------------------------------|
B|-------------------------------------------------------------------|
G|---7p6---7-7-7-7---7p6--7-7-7-7---6~--7-7-7-7---6~--7-7-7-7--------|
D|---7~----7-7-7-7---7~---7-7-7-7---7~--7-7-7-7---7~--7-7-7-7--------|
A|---7~----7-7-7-7---7~---7-7-7-7---7~--7-7-7-7---7~--7-7-7-7--------|
E|-------------------------------------------------------------------|
           . . . .        . . . .       . . . .       . . . .
e|------------------------------------------------------------------------|
B|------------------8-----7-----0-------------------8-----7-----0---------|
G|---9~--9-9-9-9----9--9--9--9--9--9--9~--9-9-9-9---9--9--9--9--9--9------|
D|---9~--9-9-9-9----9--9--9--9--9--9--9~--9-9-9-9---9--9--9--9--9--9------|
A|------------------------------------------------------------------------|
E|------------------------------------------------------------------------|
         . . . .       .     .     .      . . . .      .     .     .
chorus:3
e|---------------5---------------------------------5--------------5-------|
B|-------------------------------5--------------------7------7------------|
G|--------6----------------6-----6-----------7-----------7-----7----------|
D|-----7-----7----------7-----7-----------7-----7----------7--------------|
A|--0---------------0-0----------------5----------------------------------|
E|------------------------------------------------------------------------|
   He---ed---- my---------- warning--------- my----------- darl-----------|ing

e|-------------------------------------------|
B|-------------------------------------------|
G|----4--44--4-----2--22--2------------------|
D|----4--44--4-----2--22--2--------5~--------|
A|----2--22--2-----0--00--0--------5~--------|
E|---------------------------------3~--------|
   Don't let -------the tw--ilight ----------|drown

e|---------------5---------------------------------5--------------5-------|
B|-------------------------------5--------------------7------7------------|
G|--------6----------------6-----6-----------7-----------7-----7----------|
D|-----7-----7----------7-----7-----------7-----7----------7--------------|
A|--0---------------0-0----------------5----------------------------------|
E|------------------------------------------------------------------------|
--Fe------el ---the shore-------line --------thri-------------------------|ving

e|-------------------------------------------|
B|-------------------------------------------|
G|----4--44--4-----2--22--2------------------|
D|----4--44--4-----2--22--2--------5~--------|
A|----2--22--2-----0--00--0--------5~--------|
E|---------------------------------3~--------|
    Turn around----Turn around---------------|Turn around

outro harmonics
e|---------------------------|
B|----7+---------------------|
G|--7+---5+-------7+---------|
D|----------5+---------------|
A|-------------5+------------|
E|---------------------------|

these are all natural harmonics meaning u just place your finger on top of the string 
pressing it full and let the notes ring
for a close up on how to learn it skip to
3:40 on the time bar and it'll take the guitar in close up view so u can learn it

other than that I hope every one likes it :]
I had help for the begining so I give credit to superdinoninja
thanks a bunch for the intro
thanks!!
            
Submit corrections


        Strawberry Waltz lessons Hard to play? Try these video lessons and learn fast Strawberry Waltz lessons
        
↑ Back to top | Tablatures and chords for acoustic guitar and electric guitar, ukulele, drums are parodies/interpretations of the original songs. You may use it for private study, scholarship, research or language learning purposes only