» » »

Meg And Dia - Cardigan Weather Tabs

Artists:  A B C D E F G H I J K L M N O P Q R S T U V W X Y Z # 

Cardigan Weather Tabs

(ver. 2) Click to play this song!
Meg And Dia
 Rating:
4/5 (16 votes)


 Cardigan Weather lessons Tabs too difficult? Try these video lessons and learn fast
 
                -------------------------------------------------------------------------------
                             Cardigan Weather - Meg and Dia
-------------------------------------------------------------------------------

Tuning:standard

I haven't seen any tabs for this wonderful song yet so i decided to try to tab it out 
I know it's not 100% accurate but it sounds nice.


| /  slide up
| \  slide down
| h  hammer-on
| p  pull-off
| ~  vibrato
| +  harmonic
| x  Mute note
================

Intro
e|------------------------|
B|--4--4h5p4--------------|
G|--6-------6-4-3---------|
D|--5---------------------|
A|--6---------------------|
E|------------------------|

Verse 1
e|-----x-----------x-----------x----------------------|
B|-----x-----------x-----------x-------4--4h5p4-------|
G|---4-x-4-4-4---9-x-9-9-9---4-x-4-4-4-6-------6-4-3--|
D|---4-x-4-4-4---9-x-9-9-9---4-x-4-4-4-5--------------|
A|-----x-----------x-----------x-------6--------------|
E|--4--x--4-4---0--x--0-0---4--x--4-4-----------------|

e|-----x-----------x-----------x-------------------|
B|-----x-----------x-----------x-------------------|
G|---4-x-4-4-4---9-x-9-9-9---4-x-4-4-4--88-88-8----|
D|---4-x-4-4-4---9-x-9-9-9---4-x-4-4-4--66-66-6----|
A|-----x-----------x-----------x--------77-77-7----|
E|--4--x--4-4---0--x--0-0---4--x--4-4---xx-xx-x----|
listen to the song for rhythm

Chorus
e|----------------------------------------|
B|----------------------------------------|
G|----8---8---6---6----9---9---8---8------|
D|---7---7---7---7----6---6---6---6-------|
A|--6---6---6---6----7---7---7---7--------|
E|-7---7---7---7----0---0---0---0---------|
                                           on 2nd time
                                          end with this
e|--------------------------------------|---------------|
B|----0---0----2---2----0---0----0---0--|----4h5p4------|
G|---3---3----3---3----1---1----0---0---|---0-----6-4-3-|
D|--4---4----4---4----2---2----2---2----|--2------------|
A|--------------------------------------|---------------|
E|-4---4----2---2----0---0----0---0-----|-0-------------|  (x2)

Verse 2
e|-----x-----------x-----------x------------x------x----|
B|-----x-----------x-----------x------------x------x----|
G|---4-x-4-4-4---9-x-9-9-9-----x------------x------x----|
D|---4-x-4-4-4---9-x-9-9-9---4-x-4-4-4----9-x-9--4-x-4--|
A|-----x-----------x---------4-x-4-4-4----9-x-9--4-x-4--|
E|--4--x--4-4---0--x--0-0---2--x--2-2---/7--x---6--x----|

e|-----x-----------x-----------x-------------------|
B|-----x-----------x-----------x-------------------|
G|---4-x-4-4-4---9-x-9-9-9---4-x-4-4-4--88-88-8----|
D|---4-x-4-4-4---9-x-9-9-9---4-x-4-4-4--66-66-6----|
A|-----x-----------x-----------x--------77-77-7----|
E|--4--x--4-4---0--x--0-0---4--x--4-4---xx-xx-x----|

Chorus
e|----------------------------------------|
B|----------------------------------------|
G|----8---8---6---6----9---9---8---8------|
D|---7---7---7---7----6---6---6---6-------|
A|--6---6---6---6----7---7---7---7--------|
E|-7---7---7---7----0---0---0---0---------|

e|---------------------------------------|
B|----0---0----2---2----0---0----0---0---|
G|---3---3----3---3----1---1----0---0----|
D|--4---4----4---4----2---2----2---2-----|
A|---------------------------------------|
E|-4---4----2---2----0---0----0---0------|

Solo and breakdown played together. 

Guitar 1                Tremolo pick here (starting after vibrato)
                                          (ending after "5")
                       (Pick in an up and down motion very fast)
e|-------------------------------------------------------------|
B|--------------------7~-77999977775555-4----------------------|
G|-------4h6--6/8-6-8--------------------6-6/8-6---6/8-9-8-----|
D|----4h6----------------------------------------9---------9---|
A|-4h6---------------------------------------------------------|
E|-------------------------------------------------------------|
                         
e|-----------------------------------------------------|
B|----------------------------7~----------7/9-7-7~-----|
G|-------4h6--6/9-8---6/9-8-----6-8-9-8-6--------------|
D|----4h6-----------9-------9--------------------------|
A|-4h6-------------------------------------------------|
E|-----------------------------------------------------|

do this a lot and pick fast. listen to the song to know when to stop.
e|------|     I find it easier to pick down on 6 and hammer on 8, then
B|----7-|     pick up on 7.
G|-6h8--|
D|------|
A|------|
E|------|

e|-------------------------------------------------|
B|-9~---12h14p12-15-14-12h14p12------------8~------|
G|-9~---------------------------------4h6--9~------|
D|-9~------------------------------4h6-----9~------|
A|------------------------------4h6--------7~------|
E|-------------------------------------------------|

Listen to song for strumming pattern.
Guitar 2
e|-----------------------------------------------|
B|-----------------------------------------------|
G|--------9-999999999999999-8-888/12-12-12-------|
D|-666666-9-999999988888888-9-999/13-13-13-------|
A|-666666-7-777777777777777-9-999/13-13-13-------|
E|-444444-------------------7-777/11-11-11-------|

e|-----------------------------------------------------------------|
B|-----------------------------10-10-10-10-10-10-999999-88888888---|
G|--------9-999999999999999-8-8-8--8--8--8--8--8-999999-99999999---|
D|-666666-9-999999988888888-9-9-7--7--7--7--7--7-999999-99999999---|
A|-666666-7-777777777777777-9-9-9--9--9--9--9--9-777777-77777777---|
E|-444444-------------------7-7-7--7--7--7--7--7-------------------|

e|--------|------------------|
B|--------|-----------8~-----|
G|-888888-|-13--------9~-----|
D|-999999-|-14-(x16)--9~-----|
A|-999999-|-14--------7~-----|
E|-777777-|-12---------------|

Chorus
Pick the first part then strum and listen to the song for the pattern.

e|----------------------------------------|
B|----------------------------------------|
G|----8---8---6---6----9---9---8---8------|
D|---7---7---7---7----6---6---6---6-------|
A|--6---6---6---6----7---7---7---7--------|
E|-7---7---7---7----0---0---0---0---------|

e|--------------------------------------|
B|----0---0----2---2----0---0----0---0--|
G|---3---3----3---3----1---1----0---0---|
D|--4---4----4---4----2---2----2---2----|
A|--------------------------------------|
E|-4---4----2---2----0---0----0---0-----|

e|------------------------------------------|
B|------------------------------------------|
G|-88x-888x-888x-888x-888x-888x-888x-888x---|
D|-77x-777x-777x-777x-666x-666x-666x-666x---|
A|-66x-666x-666x-666x-777x-777x-777x-777x---|
E|-77x-777x-777x-777x-000x-000x-000x-000x---|

e|-------------------------------------4~---2~---0~~---|
B|-------------------0000000000000000--4~---2~---0~~---|
G|----------33x-333x-1111111100000000--4~---3~---1~~---|
D|-66x-666x-44x-444x-2222222222222222--6~---4~---2~~---|
A|-66x-666x-44x-444x-xxxxxxxxxxxxxxxx--6~---4~---x~~---|
E|-44x-444x-22x-222x-------------------4~---2~---x~~---|

The End. Hope this helps. Any feedback is welcomed.

Meg is super hot!!
            
Submit corrections



        Cardigan Weather lessons Hard to play? Try these video lessons and learn fast Cardigan Weather lessons
        
↑ Back to top | Tablatures and chords for acoustic guitar and electric guitar, ukulele, drums are parodies/interpretations of the original songs. You may use it for private study, scholarship, research or language learning purposes only