» » »

Me First And The Gimme Gimmes - (Ghost) Riders In The Sky Tabs

Artists:  A B C D E F G H I J K L M N O P Q R S T U V W X Y Z # 

(Ghost) Riders In The Sky Tabs

(ver. 1) Click to play this song!
Me First And The Gimme Gimmes
 Rating:
4/5 (4 votes)
    (Ghost) Riders In The Sky lessons Tabs too difficult? Try these video lessons and learn fast
                Me First and the Gimme Gimmes
Ghost Riders (In the Sky)
Love Their Country (2006)

Intro.

e-----------------------------------|
b-----------------------------------|
g-----------------------------------|
d-5-5-3-5-5-3-5-5-3-5-5-3-5-5-3-5-5-|
a-5-5-3-5-5-3-5-5-3-5-5-3-5-5-3-5-5-|
e-3-3-1-3-3-1-3-3-1-3-3-1-3-3-1-3-3-|

   G  F  G  F  G  F  G

"Two young cowboys..."

e-----------------------------------------------------------------|
b-----------------------------------------------------------------|
g---------------------------------3-3-3-3-3-3-3-3-3-3-3-3-3-3-3---|
d-5-5-5-5-5-5-5-5-5-5-5-5-5-5-5-5-3-3-3-3-3-3-3-3-3-3-3-3-3-3-3---|
a-5-5-5-5-5-5-5-5-5-5-5-5-5-5-5-5-1-1-1-1-1-1-1-1-1-1-1-1-1-1-1---|
e-3-3-3-3-3-3-3-3-3-3-3-3-3-3-3-3---------------------------------|   (x2)

                 G                              Bb

e---------------------------------------------------------------|
b---------------------------------------------------------------|
g-3-3-3-3-3-3-3-3-3-3-3-3-3-3-3-3-8-8-8-8-8-8-8-8-8-8-8-8-8-8-8-|
d-3-3-3-3-3-3-3-3-3-3-3-3-3-3-3-3-8-8-8-8-8-8-8-8-8-8-8-8-8-8-8-|
a-1-1-1-1-1-1-1-1-1-1-1-1-1-1-1-1-6-6-6-6-6-6-6-6-6-6-6-6-6-6-6-|
e---------------------------------------------------------------|

                 Bb                           D#

e-----------------------------------|
b-----------------------------------|
g-----------------------------------|
d-5-5-3-5-5-3-5-5-3-5-5-3-5-5-3-5-5-|
a-5-5-3-5-5-3-5-5-3-5-5-3-5-5-3-5-5-|
e-3-3-1-3-3-1-3-3-1-3-3-1-3-3-1-3-3-|

"Yippy ay yay.....................yippy ay yo!"

e
b-------------------------------------------------------|
g-3-3-3-3-3-3-3-3-3-3-3-3-3-3-3-3-----------------------|
d-3-3-3-3-3-3-3-3-3-3-3-3-3-3-3-3-5-5-3-5-5-3-5-5-3-5-5-|
a-1-1-1-1-1-1-1-1-1-1-1-1-1-1-1-1-5-5-3-5-5-3-5-5-3-5-5-|
e---------------------------------3-3-1-3-3-1-3-3-1-3-3-|

                Bb                 G  F  G  F  G  F  G

"Ghost riders in..........the sky!"

e---------------------------------------------------------|
b---------------------------------------------------------|
g-8-8-8-8-8-8-8-8-8-8-8-8-8-8-8-8-8-8-8-8-8-8-8-8-8-8-8-8-|
d-8-8-8-8-8-8-8-8-8-8-8-8-8-8-8-8-8-8-8-8-8-8-8-8-8-8-8-8-|
a-6-6-6-6-6-6-6-6-6-6-6-6-6-6-6-6-6-6-6-6-6-6-6-6-6-6-6-6-|
e---------------------------------------------------------|

e-----------------------------------|
b-----------------------------------|
g-----------------------------------|
d-5-5-3-5-5-3-5-5-3-5-5-3-5-5-3-5-5-|
a-5-5-3-5-5-3-5-5-3-5-5-3-5-5-3-5-5-|
e-3-3-1-3-3-1-3-3-1-3-3-1-3-3-1-3-3-|

Outro

e--------------------------------------------|
b--------------------------------------------|
g-8-8-888-8-5-5-555-5------------------------|
d-8-8-888-8-5-5-555-5-5-5-3-5-5-3-5-5-3-5-5~-|
a-6-6-666-6-3-3-333-3-5-5-3-5-5-3-5-5-3-5-5~-|
e---------------------3-3-1-3-3-1-3-3-1-3-3~-|

      Bb       C       G  F  G  F  G  F  G
            
Submit corrections

↑ Back to top | Tablatures and chords for acoustic guitar and electric guitar, ukulele, drums are parodies/interpretations of the original songs. You may use it for private study, scholarship, research or language learning purposes only